ISO-10303-21;
HEADER;
/* Generated by software containing ST-Developer
 * from STEP Tools, Inc. (www.steptools.com) 
 */
/* OPTION: strings as raw bytes, not using required /X/ escapes */

FILE_DESCRIPTION(
/* description */ ('File 3d .step'),
/* implementation_level */ '2;1');

FILE_NAME(
/* name */ '7317420',
/* time_stamp */ '2019-08-26T13:33:08+02:00',
/* author */ ('Zorzan D.'),
/* organization */ ('Gamm Srl.'),
/* preprocessor_version */ 'ST-DEVELOPER v16.7',
/* originating_system */ 'DEX',
/* authorisation */ $);

FILE_SCHEMA (('AUTOMOTIVE_DESIGN {1 0 10303 214 3 1 1}'));
ENDSEC;

DATA;
#10=PROPERTY_DEFINITION_REPRESENTATION(#14,#12);
#11=PROPERTY_DEFINITION_REPRESENTATION(#15,#13);
#12=REPRESENTATION('',(#16),#323);
#13=REPRESENTATION('',(#17),#323);
#14=PROPERTY_DEFINITION('pmi validation property','',#328);
#15=PROPERTY_DEFINITION('pmi validation property','',#328);
#16=VALUE_REPRESENTATION_ITEM('number of annotations',COUNT_MEASURE(0.));
#17=VALUE_REPRESENTATION_ITEM('number of views',COUNT_MEASURE(0.));
#18=SHAPE_REPRESENTATION_RELATIONSHIP('','',#187,#19);
#19=ADVANCED_BREP_SHAPE_REPRESENTATION('',(#185),#323);
#20=TOROIDAL_SURFACE('',#211,12.5,1.);
#21=TOROIDAL_SURFACE('',#212,13.8865912277893,1.);
#22=TOROIDAL_SURFACE('',#213,13.,0.5);
#23=TOROIDAL_SURFACE('',#215,13.0694062895961,0.5);
#24=TOROIDAL_SURFACE('',#216,13.,0.5);
#25=TOROIDAL_SURFACE('',#217,13.,0.5);
#26=SPHERICAL_SURFACE('',#209,7.);
#27=CONICAL_SURFACE('',#203,13.5,0.148889947609497);
#28=CONICAL_SURFACE('',#206,15.,1.24737345398597);
#29=PLANE('',#192);
#30=PLANE('',#200);
#31=PLANE('',#210);
#32=ORIENTED_EDGE('',*,*,#60,.F.);
#33=ORIENTED_EDGE('',*,*,#61,.T.);
#34=ORIENTED_EDGE('',*,*,#62,.T.);
#35=ORIENTED_EDGE('',*,*,#60,.T.);
#36=ORIENTED_EDGE('',*,*,#63,.T.);
#37=ORIENTED_EDGE('',*,*,#64,.T.);
#38=ORIENTED_EDGE('',*,*,#65,.T.);
#39=ORIENTED_EDGE('',*,*,#66,.T.);
#40=ORIENTED_EDGE('',*,*,#67,.T.);
#41=ORIENTED_EDGE('',*,*,#68,.T.);
#42=ORIENTED_EDGE('',*,*,#69,.T.);
#43=ORIENTED_EDGE('',*,*,#70,.T.);
#44=ORIENTED_EDGE('',*,*,#71,.T.);
#45=ORIENTED_EDGE('',*,*,#72,.F.);
#46=ORIENTED_EDGE('',*,*,#72,.T.);
#47=ORIENTED_EDGE('',*,*,#61,.F.);
#48=ORIENTED_EDGE('',*,*,#62,.F.);
#49=ORIENTED_EDGE('',*,*,#64,.F.);
#50=ORIENTED_EDGE('',*,*,#70,.F.);
#51=ORIENTED_EDGE('',*,*,#71,.F.);
#52=ORIENTED_EDGE('',*,*,#63,.F.);
#53=ORIENTED_EDGE('',*,*,#73,.F.);
#54=ORIENTED_EDGE('',*,*,#68,.F.);
#55=ORIENTED_EDGE('',*,*,#69,.F.);
#56=ORIENTED_EDGE('',*,*,#66,.F.);
#57=ORIENTED_EDGE('',*,*,#67,.F.);
#58=ORIENTED_EDGE('',*,*,#73,.T.);
#59=ORIENTED_EDGE('',*,*,#65,.F.);
#60=EDGE_CURVE('',#74,#74,#88,.T.);
#61=EDGE_CURVE('',#75,#75,#89,.T.);
#62=EDGE_CURVE('',#76,#76,#90,.F.);
#63=EDGE_CURVE('',#77,#77,#91,.T.);
#64=EDGE_CURVE('',#78,#78,#92,.T.);
#65=EDGE_CURVE('',#79,#79,#93,.F.);
#66=EDGE_CURVE('',#80,#80,#94,.F.);
#67=EDGE_CURVE('',#81,#81,#95,.T.);
#68=EDGE_CURVE('',#82,#82,#96,.F.);
#69=EDGE_CURVE('',#83,#83,#97,.F.);
#70=EDGE_CURVE('',#84,#84,#98,.T.);
#71=EDGE_CURVE('',#85,#85,#99,.T.);
#72=EDGE_CURVE('',#86,#86,#100,.T.);
#73=EDGE_CURVE('',#87,#87,#101,.F.);
#74=VERTEX_POINT('',#281);
#75=VERTEX_POINT('',#283);
#76=VERTEX_POINT('',#286);
#77=VERTEX_POINT('',#289);
#78=VERTEX_POINT('',#291);
#79=VERTEX_POINT('',#294);
#80=VERTEX_POINT('',#296);
#81=VERTEX_POINT('',#299);
#82=VERTEX_POINT('',#301);
#83=VERTEX_POINT('',#304);
#84=VERTEX_POINT('',#306);
#85=VERTEX_POINT('',#309);
#86=VERTEX_POINT('',#311);
#87=VERTEX_POINT('',#318);
#88=CIRCLE('',#190,10.5);
#89=CIRCLE('',#191,10.5);
#90=CIRCLE('',#193,12.5);
#91=CIRCLE('',#195,13.5);
#92=CIRCLE('',#196,13.5);
#93=CIRCLE('',#198,12.5);
#94=CIRCLE('',#199,12.5);
#95=CIRCLE('',#201,13.);
#96=CIRCLE('',#202,13.0694062895961);
#97=CIRCLE('',#204,13.5638744660302);
#98=CIRCLE('',#205,14.8755275806576);
#99=CIRCLE('',#207,14.2044050514245);
#100=CIRCLE('',#208,2.22469676544644);
#101=CIRCLE('',#214,13.);
#102=EDGE_LOOP('',(#32));
#103=EDGE_LOOP('',(#33));
#104=EDGE_LOOP('',(#34));
#105=EDGE_LOOP('',(#35));
#106=EDGE_LOOP('',(#36));
#107=EDGE_LOOP('',(#37));
#108=EDGE_LOOP('',(#38));
#109=EDGE_LOOP('',(#39));
#110=EDGE_LOOP('',(#40));
#111=EDGE_LOOP('',(#41));
#112=EDGE_LOOP('',(#42));
#113=EDGE_LOOP('',(#43));
#114=EDGE_LOOP('',(#44));
#115=EDGE_LOOP('',(#45));
#116=EDGE_LOOP('',(#46));
#117=EDGE_LOOP('',(#47));
#118=EDGE_LOOP('',(#48));
#119=EDGE_LOOP('',(#49));
#120=EDGE_LOOP('',(#50));
#121=EDGE_LOOP('',(#51));
#122=EDGE_LOOP('',(#52));
#123=EDGE_LOOP('',(#53));
#124=EDGE_LOOP('',(#54));
#125=EDGE_LOOP('',(#55));
#126=EDGE_LOOP('',(#56));
#127=EDGE_LOOP('',(#57));
#128=EDGE_LOOP('',(#58));
#129=EDGE_LOOP('',(#59));
#130=FACE_BOUND('',#102,.T.);
#131=FACE_BOUND('',#103,.T.);
#132=FACE_BOUND('',#104,.T.);
#133=FACE_BOUND('',#105,.T.);
#134=FACE_BOUND('',#106,.T.);
#135=FACE_BOUND('',#107,.T.);
#136=FACE_BOUND('',#108,.T.);
#137=FACE_BOUND('',#109,.T.);
#138=FACE_BOUND('',#110,.T.);
#139=FACE_BOUND('',#111,.T.);
#140=FACE_BOUND('',#112,.T.);
#141=FACE_BOUND('',#113,.T.);
#142=FACE_BOUND('',#114,.T.);
#143=FACE_BOUND('',#115,.T.);
#144=FACE_BOUND('',#116,.T.);
#145=FACE_BOUND('',#117,.T.);
#146=FACE_BOUND('',#118,.T.);
#147=FACE_BOUND('',#119,.T.);
#148=FACE_BOUND('',#120,.T.);
#149=FACE_BOUND('',#121,.T.);
#150=FACE_BOUND('',#122,.T.);
#151=FACE_BOUND('',#123,.T.);
#152=FACE_BOUND('',#124,.T.);
#153=FACE_BOUND('',#125,.T.);
#154=FACE_BOUND('',#126,.T.);
#155=FACE_BOUND('',#127,.T.);
#156=FACE_BOUND('',#128,.T.);
#157=FACE_BOUND('',#129,.T.);
#158=CYLINDRICAL_SURFACE('',#189,10.5);
#159=CYLINDRICAL_SURFACE('',#194,13.5);
#160=CYLINDRICAL_SURFACE('',#197,12.5);
#161=ADVANCED_FACE('',(#130,#131),#158,.F.);
#162=ADVANCED_FACE('',(#132,#133),#29,.F.);
#163=ADVANCED_FACE('',(#134,#135),#159,.T.);
#164=ADVANCED_FACE('',(#136,#137),#160,.T.);
#165=ADVANCED_FACE('',(#138,#139),#30,.F.);
#166=ADVANCED_FACE('',(#140,#141),#27,.T.);
#167=ADVANCED_FACE('',(#142,#143),#28,.T.);
#168=ADVANCED_FACE('',(#144),#26,.T.);
#169=ADVANCED_FACE('',(#145),#31,.F.);
#170=ADVANCED_FACE('',(#146,#147),#20,.T.);
#171=ADVANCED_FACE('',(#148,#149),#21,.T.);
#172=ADVANCED_FACE('',(#150,#151),#22,.T.);
#173=ADVANCED_FACE('',(#152,#153),#23,.T.);
#174=ADVANCED_FACE('',(#154,#155),#24,.F.);
#175=ADVANCED_FACE('',(#156,#157),#25,.F.);
#176=CLOSED_SHELL('',(#161,#162,#163,#164,#165,#166,#167,#168,#169,#170,
#171,#172,#173,#174,#175));
#177=STYLED_ITEM('',(#178),#185);
#178=PRESENTATION_STYLE_ASSIGNMENT((#179));
#179=SURFACE_STYLE_USAGE(.BOTH.,#180);
#180=SURFACE_SIDE_STYLE('',(#181));
#181=SURFACE_STYLE_FILL_AREA(#182);
#182=FILL_AREA_STYLE('',(#183));
#183=FILL_AREA_STYLE_COLOUR('',#184);
#184=COLOUR_RGB('',0.200000002980232,0.200000002980232,0.200000002980232);
#185=MANIFOLD_SOLID_BREP('',#176);
#186=SHAPE_DEFINITION_REPRESENTATION(#328,#187);
#187=SHAPE_REPRESENTATION('7317420',(#188),#323);
#188=AXIS2_PLACEMENT_3D('',#278,#218,#219);
#189=AXIS2_PLACEMENT_3D('',#279,#220,#221);
#190=AXIS2_PLACEMENT_3D('',#280,#222,#223);
#191=AXIS2_PLACEMENT_3D('',#282,#224,#225);
#192=AXIS2_PLACEMENT_3D('',#284,#226,#227);
#193=AXIS2_PLACEMENT_3D('',#285,#228,#229);
#194=AXIS2_PLACEMENT_3D('',#287,#230,#231);
#195=AXIS2_PLACEMENT_3D('',#288,#232,#233);
#196=AXIS2_PLACEMENT_3D('',#290,#234,#235);
#197=AXIS2_PLACEMENT_3D('',#292,#236,#237);
#198=AXIS2_PLACEMENT_3D('',#293,#238,#239);
#199=AXIS2_PLACEMENT_3D('',#295,#240,#241);
#200=AXIS2_PLACEMENT_3D('',#297,#242,#243);
#201=AXIS2_PLACEMENT_3D('',#298,#244,#245);
#202=AXIS2_PLACEMENT_3D('',#300,#246,#247);
#203=AXIS2_PLACEMENT_3D('',#302,#248,#249);
#204=AXIS2_PLACEMENT_3D('',#303,#250,#251);
#205=AXIS2_PLACEMENT_3D('',#305,#252,#253);
#206=AXIS2_PLACEMENT_3D('',#307,#254,#255);
#207=AXIS2_PLACEMENT_3D('',#308,#256,#257);
#208=AXIS2_PLACEMENT_3D('',#310,#258,#259);
#209=AXIS2_PLACEMENT_3D('',#312,#260,#261);
#210=AXIS2_PLACEMENT_3D('',#313,#262,#263);
#211=AXIS2_PLACEMENT_3D('',#314,#264,#265);
#212=AXIS2_PLACEMENT_3D('',#315,#266,#267);
#213=AXIS2_PLACEMENT_3D('',#316,#268,#269);
#214=AXIS2_PLACEMENT_3D('',#317,#270,#271);
#215=AXIS2_PLACEMENT_3D('',#319,#272,#273);
#216=AXIS2_PLACEMENT_3D('',#320,#274,#275);
#217=AXIS2_PLACEMENT_3D('',#321,#276,#277);
#218=DIRECTION('',(0.,0.,1.));
#219=DIRECTION('',(1.,0.,0.));
#220=DIRECTION('',(0.,0.,1.));
#221=DIRECTION('',(1.,0.,0.));
#222=DIRECTION('',(0.,0.,1.));
#223=DIRECTION('',(1.,0.,0.));
#224=DIRECTION('',(0.,0.,1.));
#225=DIRECTION('',(1.,0.,0.));
#226=DIRECTION('',(0.,0.,1.));
#227=DIRECTION('',(1.,0.,0.));
#228=DIRECTION('',(0.,0.,1.));
#229=DIRECTION('',(1.,0.,0.));
#230=DIRECTION('',(0.,0.,1.));
#231=DIRECTION('',(1.,0.,0.));
#232=DIRECTION('',(0.,0.,-1.));
#233=DIRECTION('',(-1.,0.,0.));
#234=DIRECTION('',(0.,0.,1.));
#235=DIRECTION('',(1.,0.,0.));
#236=DIRECTION('',(0.,0.,1.));
#237=DIRECTION('',(1.,0.,0.));
#238=DIRECTION('',(0.,0.,-1.));
#239=DIRECTION('',(-1.,0.,0.));
#240=DIRECTION('',(0.,0.,1.));
#241=DIRECTION('',(1.,0.,0.));
#242=DIRECTION('',(0.,0.,1.));
#243=DIRECTION('',(1.,0.,0.));
#244=DIRECTION('',(0.,0.,1.));
#245=DIRECTION('',(1.,0.,0.));
#246=DIRECTION('',(0.,0.,1.));
#247=DIRECTION('',(1.,0.,0.));
#248=DIRECTION('',(0.,0.,1.));
#249=DIRECTION('',(1.,0.,0.));
#250=DIRECTION('',(0.,0.,-1.));
#251=DIRECTION('',(-1.,0.,0.));
#252=DIRECTION('',(0.,0.,-1.));
#253=DIRECTION('',(-1.,0.,0.));
#254=DIRECTION('',(0.,0.,-1.));
#255=DIRECTION('',(-1.,0.,0.));
#256=DIRECTION('',(0.,0.,1.));
#257=DIRECTION('',(1.,0.,0.));
#258=DIRECTION('',(0.,0.,1.));
#259=DIRECTION('',(1.,0.,0.));
#260=DIRECTION('',(0.,0.,1.));
#261=DIRECTION('',(1.,0.,0.));
#262=DIRECTION('',(0.,0.,1.));
#263=DIRECTION('',(1.,0.,0.));
#264=DIRECTION('',(0.,0.,1.));
#265=DIRECTION('',(1.,0.,0.));
#266=DIRECTION('',(0.,0.,-1.));
#267=DIRECTION('',(-1.,0.,0.));
#268=DIRECTION('',(0.,0.,-1.));
#269=DIRECTION('',(-1.,0.,0.));
#270=DIRECTION('',(0.,0.,-1.));
#271=DIRECTION('',(-1.,0.,0.));
#272=DIRECTION('',(0.,0.,1.));
#273=DIRECTION('',(1.,0.,0.));
#274=DIRECTION('',(0.,0.,1.));
#275=DIRECTION('',(1.,0.,0.));
#276=DIRECTION('',(0.,0.,-1.));
#277=DIRECTION('',(-1.,0.,0.));
#278=CARTESIAN_POINT('',(0.,0.,0.));
#279=CARTESIAN_POINT('',(0.,0.,57.15));
#280=CARTESIAN_POINT('',(0.,0.,-60.));
#281=CARTESIAN_POINT('',(10.5,0.,-60.));
#282=CARTESIAN_POINT('',(0.,0.,60.));
#283=CARTESIAN_POINT('',(10.5,0.,60.));
#284=CARTESIAN_POINT('',(10.5,0.,-60.));
#285=CARTESIAN_POINT('',(0.,0.,-60.));
#286=CARTESIAN_POINT('',(12.5,0.,-60.));
#287=CARTESIAN_POINT('',(0.,0.,57.15));
#288=CARTESIAN_POINT('',(0.,0.,-50.8548860995979));
#289=CARTESIAN_POINT('',(-13.5,0.,-50.8548860995979));
#290=CARTESIAN_POINT('',(0.,0.,-59.));
#291=CARTESIAN_POINT('',(13.5,0.,-59.));
#292=CARTESIAN_POINT('',(0.,0.,57.15));
#293=CARTESIAN_POINT('',(0.,0.,-49.8548860995979));
#294=CARTESIAN_POINT('',(-12.5,0.,-49.8548860995979));
#295=CARTESIAN_POINT('',(0.,0.,49.8548860995979));
#296=CARTESIAN_POINT('',(12.5,0.,49.8548860995979));
#297=CARTESIAN_POINT('',(12.5,0.,50.3548860995979));
#298=CARTESIAN_POINT('',(0.,0.,50.3548860995979));
#299=CARTESIAN_POINT('',(13.,0.,50.3548860995979));
#300=CARTESIAN_POINT('',(0.,0.,50.3548860995979));
#301=CARTESIAN_POINT('',(13.0694062895961,0.,50.3548860995979));
#302=CARTESIAN_POINT('',(0.,0.,50.3548860995979));
#303=CARTESIAN_POINT('',(0.,0.,50.7807158731328));
#304=CARTESIAN_POINT('',(-13.5638744660302,0.,50.7807158731328));
#305=CARTESIAN_POINT('',(0.,0.,59.5250699706484));
#306=CARTESIAN_POINT('',(-14.8755275806576,0.,59.5250699706484));
#307=CARTESIAN_POINT('',(0.,0.,60.3548860995979));
#308=CARTESIAN_POINT('',(0.,0.,60.6215635617933));
#309=CARTESIAN_POINT('',(14.2044050514245,0.,60.6215635617933));
#310=CARTESIAN_POINT('',(0.,0.,64.6370719675029));
#311=CARTESIAN_POINT('',(2.22469676544644,0.,64.6370719675029));
#312=CARTESIAN_POINT('',(0.,0.,58.0000000000001));
#313=CARTESIAN_POINT('',(10.5,0.,60.));
#314=CARTESIAN_POINT('',(0.,0.,-59.));
#315=CARTESIAN_POINT('',(0.,0.,59.6734104235786));
#316=CARTESIAN_POINT('',(0.,0.,-50.8548860995979));
#317=CARTESIAN_POINT('',(0.,0.,-50.3548860995979));
#318=CARTESIAN_POINT('',(-13.,0.,-50.3548860995979));
#319=CARTESIAN_POINT('',(0.,0.,50.8548860995979));
#320=CARTESIAN_POINT('',(0.,0.,49.8548860995979));
#321=CARTESIAN_POINT('',(0.,0.,-49.8548860995979));
#322=MECHANICAL_DESIGN_GEOMETRIC_PRESENTATION_REPRESENTATION('',(#177),
#323);
#323=(
GEOMETRIC_REPRESENTATION_CONTEXT(3)
GLOBAL_UNCERTAINTY_ASSIGNED_CONTEXT((#324))
GLOBAL_UNIT_ASSIGNED_CONTEXT((#327,#326,#325))
REPRESENTATION_CONTEXT('7317420','TOP_LEVEL_ASSEMBLY_PART')
);
#324=UNCERTAINTY_MEASURE_WITH_UNIT(LENGTH_MEASURE(0.005),#327,
'DISTANCE_ACCURACY_VALUE','Maximum Tolerance applied to model');
#325=(
NAMED_UNIT(*)
SI_UNIT($,.STERADIAN.)
SOLID_ANGLE_UNIT()
);
#326=(
NAMED_UNIT(*)
PLANE_ANGLE_UNIT()
SI_UNIT($,.RADIAN.)
);
#327=(
LENGTH_UNIT()
NAMED_UNIT(*)
SI_UNIT(.MILLI.,.METRE.)
);
#328=PRODUCT_DEFINITION_SHAPE('','',#329);
#329=PRODUCT_DEFINITION('','',#331,#330);
#330=PRODUCT_DEFINITION_CONTEXT('',#337,'design');
#331=PRODUCT_DEFINITION_FORMATION_WITH_SPECIFIED_SOURCE('','',#333,
 .NOT_KNOWN.);
#332=PRODUCT_RELATED_PRODUCT_CATEGORY('','',(#333));
#333=PRODUCT('7317420','7317420','7317420',(#335));
#334=PRODUCT_CATEGORY('','');
#335=PRODUCT_CONTEXT('',#337,'mechanical');
#336=APPLICATION_PROTOCOL_DEFINITION('international standard',
'automotive_design',2010,#337);
#337=APPLICATION_CONTEXT(
'core data for automotive mechanical design processes');
ENDSEC;
END-ISO-10303-21;
