ISO-10303-21;
HEADER;
/* Generated by software containing ST-Developer
 * from STEP Tools, Inc. (www.steptools.com) 
 */
/* OPTION: strings as raw bytes, not using required /X/ escapes */

FILE_DESCRIPTION(
/* description */ ('AC2F'),
/* implementation_level */ '2;1');

FILE_NAME(
/* name */ '7317210',
/* time_stamp */ '2018-11-30T09:54:20+01:00',
/* author */ ('Zorzan Davide'),
/* organization */ ('Gamm Srl.'),
/* preprocessor_version */ 'ST-DEVELOPER v16.7',
/* originating_system */ 'DEX',
/* authorisation */ $);

FILE_SCHEMA (('CONFIG_CONTROL_DESIGN'));
ENDSEC;

DATA;
#10=PROPERTY_DEFINITION_REPRESENTATION(#14,#12);
#11=PROPERTY_DEFINITION_REPRESENTATION(#15,#13);
#12=REPRESENTATION('',(#16),#343);
#13=REPRESENTATION('',(#17),#343);
#14=PROPERTY_DEFINITION('pmi validation property','',#348);
#15=PROPERTY_DEFINITION('pmi validation property','',#348);
#16=VALUE_REPRESENTATION_ITEM('number of annotations',COUNT_MEASURE(0.));
#17=VALUE_REPRESENTATION_ITEM('number of views',COUNT_MEASURE(0.));
#18=SHAPE_REPRESENTATION_RELATIONSHIP('','',#198,#19);
#19=ADVANCED_BREP_SHAPE_REPRESENTATION('',(#196),#343);
#20=TOROIDAL_SURFACE('',#225,20.2791461415975,1.);
#21=TOROIDAL_SURFACE('',#226,20.3492070888625,1.);
#22=TOROIDAL_SURFACE('',#227,18.5904505714924,0.5);
#23=TOROIDAL_SURFACE('',#228,18.5764364558085,0.5);
#24=TOROIDAL_SURFACE('',#229,18.,0.5);
#25=TOROIDAL_SURFACE('',#230,18.,0.5);
#26=SPHERICAL_SURFACE('',#223,10.);
#27=CONICAL_SURFACE('',#205,21.5,0.198239167957755);
#28=CONICAL_SURFACE('',#217,19.,0.165148677414627);
#29=CONICAL_SURFACE('',#220,21.5,1.40564764938027);
#30=PLANE('',#203);
#31=PLANE('',#208);
#32=PLANE('',#214);
#33=PLANE('',#224);
#34=ORIENTED_EDGE('',*,*,#64,.F.);
#35=ORIENTED_EDGE('',*,*,#65,.T.);
#36=ORIENTED_EDGE('',*,*,#66,.T.);
#37=ORIENTED_EDGE('',*,*,#64,.T.);
#38=ORIENTED_EDGE('',*,*,#67,.T.);
#39=ORIENTED_EDGE('',*,*,#68,.T.);
#40=ORIENTED_EDGE('',*,*,#69,.T.);
#41=ORIENTED_EDGE('',*,*,#70,.T.);
#42=ORIENTED_EDGE('',*,*,#71,.T.);
#43=ORIENTED_EDGE('',*,*,#72,.T.);
#44=ORIENTED_EDGE('',*,*,#73,.T.);
#45=ORIENTED_EDGE('',*,*,#74,.T.);
#46=ORIENTED_EDGE('',*,*,#75,.T.);
#47=ORIENTED_EDGE('',*,*,#76,.T.);
#48=ORIENTED_EDGE('',*,*,#77,.T.);
#49=ORIENTED_EDGE('',*,*,#78,.F.);
#50=ORIENTED_EDGE('',*,*,#78,.T.);
#51=ORIENTED_EDGE('',*,*,#65,.F.);
#52=ORIENTED_EDGE('',*,*,#66,.F.);
#53=ORIENTED_EDGE('',*,*,#68,.F.);
#54=ORIENTED_EDGE('',*,*,#76,.F.);
#55=ORIENTED_EDGE('',*,*,#77,.F.);
#56=ORIENTED_EDGE('',*,*,#67,.F.);
#57=ORIENTED_EDGE('',*,*,#70,.F.);
#58=ORIENTED_EDGE('',*,*,#74,.F.);
#59=ORIENTED_EDGE('',*,*,#75,.F.);
#60=ORIENTED_EDGE('',*,*,#72,.F.);
#61=ORIENTED_EDGE('',*,*,#73,.F.);
#62=ORIENTED_EDGE('',*,*,#69,.F.);
#63=ORIENTED_EDGE('',*,*,#71,.F.);
#64=EDGE_CURVE('',#79,#79,#94,.T.);
#65=EDGE_CURVE('',#80,#80,#95,.T.);
#66=EDGE_CURVE('',#81,#81,#96,.F.);
#67=EDGE_CURVE('',#82,#82,#97,.F.);
#68=EDGE_CURVE('',#83,#83,#98,.T.);
#69=EDGE_CURVE('',#84,#84,#99,.T.);
#70=EDGE_CURVE('',#85,#85,#100,.F.);
#71=EDGE_CURVE('',#86,#86,#101,.F.);
#72=EDGE_CURVE('',#87,#87,#102,.F.);
#73=EDGE_CURVE('',#88,#88,#103,.T.);
#74=EDGE_CURVE('',#89,#89,#104,.F.);
#75=EDGE_CURVE('',#90,#90,#105,.F.);
#76=EDGE_CURVE('',#91,#91,#106,.T.);
#77=EDGE_CURVE('',#92,#92,#107,.T.);
#78=EDGE_CURVE('',#93,#93,#108,.T.);
#79=VERTEX_POINT('',#298);
#80=VERTEX_POINT('',#300);
#81=VERTEX_POINT('',#303);
#82=VERTEX_POINT('',#306);
#83=VERTEX_POINT('',#308);
#84=VERTEX_POINT('',#311);
#85=VERTEX_POINT('',#313);
#86=VERTEX_POINT('',#316);
#87=VERTEX_POINT('',#318);
#88=VERTEX_POINT('',#321);
#89=VERTEX_POINT('',#323);
#90=VERTEX_POINT('',#326);
#91=VERTEX_POINT('',#328);
#92=VERTEX_POINT('',#331);
#93=VERTEX_POINT('',#333);
#94=CIRCLE('',#201,13.5);
#95=CIRCLE('',#202,13.5);
#96=CIRCLE('',#204,20.2791461415975);
#97=CIRCLE('',#206,19.0806580123033);
#98=CIRCLE('',#207,21.2595610232192);
#99=CIRCLE('',#209,18.);
#100=CIRCLE('',#210,18.5904505714924);
#101=CIRCLE('',#212,17.5);
#102=CIRCLE('',#213,17.5);
#103=CIRCLE('',#215,18.);
#104=CIRCLE('',#216,18.5764364558085);
#105=CIRCLE('',#218,19.0696334177246);
#106=CIRCLE('',#219,21.3356010126946);
#107=CIRCLE('',#221,20.5136060761679);
#108=CIRCLE('',#222,1.64398987305358);
#109=EDGE_LOOP('',(#34));
#110=EDGE_LOOP('',(#35));
#111=EDGE_LOOP('',(#36));
#112=EDGE_LOOP('',(#37));
#113=EDGE_LOOP('',(#38));
#114=EDGE_LOOP('',(#39));
#115=EDGE_LOOP('',(#40));
#116=EDGE_LOOP('',(#41));
#117=EDGE_LOOP('',(#42));
#118=EDGE_LOOP('',(#43));
#119=EDGE_LOOP('',(#44));
#120=EDGE_LOOP('',(#45));
#121=EDGE_LOOP('',(#46));
#122=EDGE_LOOP('',(#47));
#123=EDGE_LOOP('',(#48));
#124=EDGE_LOOP('',(#49));
#125=EDGE_LOOP('',(#50));
#126=EDGE_LOOP('',(#51));
#127=EDGE_LOOP('',(#52));
#128=EDGE_LOOP('',(#53));
#129=EDGE_LOOP('',(#54));
#130=EDGE_LOOP('',(#55));
#131=EDGE_LOOP('',(#56));
#132=EDGE_LOOP('',(#57));
#133=EDGE_LOOP('',(#58));
#134=EDGE_LOOP('',(#59));
#135=EDGE_LOOP('',(#60));
#136=EDGE_LOOP('',(#61));
#137=EDGE_LOOP('',(#62));
#138=EDGE_LOOP('',(#63));
#139=FACE_BOUND('',#109,.T.);
#140=FACE_BOUND('',#110,.T.);
#141=FACE_BOUND('',#111,.T.);
#142=FACE_BOUND('',#112,.T.);
#143=FACE_BOUND('',#113,.T.);
#144=FACE_BOUND('',#114,.T.);
#145=FACE_BOUND('',#115,.T.);
#146=FACE_BOUND('',#116,.T.);
#147=FACE_BOUND('',#117,.T.);
#148=FACE_BOUND('',#118,.T.);
#149=FACE_BOUND('',#119,.T.);
#150=FACE_BOUND('',#120,.T.);
#151=FACE_BOUND('',#121,.T.);
#152=FACE_BOUND('',#122,.T.);
#153=FACE_BOUND('',#123,.T.);
#154=FACE_BOUND('',#124,.T.);
#155=FACE_BOUND('',#125,.T.);
#156=FACE_BOUND('',#126,.T.);
#157=FACE_BOUND('',#127,.T.);
#158=FACE_BOUND('',#128,.T.);
#159=FACE_BOUND('',#129,.T.);
#160=FACE_BOUND('',#130,.T.);
#161=FACE_BOUND('',#131,.T.);
#162=FACE_BOUND('',#132,.T.);
#163=FACE_BOUND('',#133,.T.);
#164=FACE_BOUND('',#134,.T.);
#165=FACE_BOUND('',#135,.T.);
#166=FACE_BOUND('',#136,.T.);
#167=FACE_BOUND('',#137,.T.);
#168=FACE_BOUND('',#138,.T.);
#169=CYLINDRICAL_SURFACE('',#200,13.5);
#170=CYLINDRICAL_SURFACE('',#211,17.5);
#171=ADVANCED_FACE('',(#139,#140),#169,.F.);
#172=ADVANCED_FACE('',(#141,#142),#30,.F.);
#173=ADVANCED_FACE('',(#143,#144),#27,.T.);
#174=ADVANCED_FACE('',(#145,#146),#31,.F.);
#175=ADVANCED_FACE('',(#147,#148),#170,.T.);
#176=ADVANCED_FACE('',(#149,#150),#32,.F.);
#177=ADVANCED_FACE('',(#151,#152),#28,.T.);
#178=ADVANCED_FACE('',(#153,#154),#29,.T.);
#179=ADVANCED_FACE('',(#155),#26,.T.);
#180=ADVANCED_FACE('',(#156),#33,.F.);
#181=ADVANCED_FACE('',(#157,#158),#20,.T.);
#182=ADVANCED_FACE('',(#159,#160),#21,.T.);
#183=ADVANCED_FACE('',(#161,#162),#22,.T.);
#184=ADVANCED_FACE('',(#163,#164),#23,.T.);
#185=ADVANCED_FACE('',(#165,#166),#24,.F.);
#186=ADVANCED_FACE('',(#167,#168),#25,.F.);
#187=CLOSED_SHELL('',(#171,#172,#173,#174,#175,#176,#177,#178,#179,#180,
#181,#182,#183,#184,#185,#186));
#188=STYLED_ITEM('',(#189),#196);
#189=PRESENTATION_STYLE_ASSIGNMENT((#190));
#190=SURFACE_STYLE_USAGE(.BOTH.,#191);
#191=SURFACE_SIDE_STYLE('',(#192));
#192=SURFACE_STYLE_FILL_AREA(#193);
#193=FILL_AREA_STYLE('',(#194));
#194=FILL_AREA_STYLE_COLOUR('',#195);
#195=COLOUR_RGB('',0.200000002980232,0.200000002980232,0.200000002980232);
#196=MANIFOLD_SOLID_BREP('',#187);
#197=SHAPE_DEFINITION_REPRESENTATION(#348,#198);
#198=SHAPE_REPRESENTATION('7317210',(#199),#343);
#199=AXIS2_PLACEMENT_3D('',#295,#231,#232);
#200=AXIS2_PLACEMENT_3D('',#296,#233,#234);
#201=AXIS2_PLACEMENT_3D('',#297,#235,#236);
#202=AXIS2_PLACEMENT_3D('',#299,#237,#238);
#203=AXIS2_PLACEMENT_3D('',#301,#239,#240);
#204=AXIS2_PLACEMENT_3D('',#302,#241,#242);
#205=AXIS2_PLACEMENT_3D('',#304,#243,#244);
#206=AXIS2_PLACEMENT_3D('',#305,#245,#246);
#207=AXIS2_PLACEMENT_3D('',#307,#247,#248);
#208=AXIS2_PLACEMENT_3D('',#309,#249,#250);
#209=AXIS2_PLACEMENT_3D('',#310,#251,#252);
#210=AXIS2_PLACEMENT_3D('',#312,#253,#254);
#211=AXIS2_PLACEMENT_3D('',#314,#255,#256);
#212=AXIS2_PLACEMENT_3D('',#315,#257,#258);
#213=AXIS2_PLACEMENT_3D('',#317,#259,#260);
#214=AXIS2_PLACEMENT_3D('',#319,#261,#262);
#215=AXIS2_PLACEMENT_3D('',#320,#263,#264);
#216=AXIS2_PLACEMENT_3D('',#322,#265,#266);
#217=AXIS2_PLACEMENT_3D('',#324,#267,#268);
#218=AXIS2_PLACEMENT_3D('',#325,#269,#270);
#219=AXIS2_PLACEMENT_3D('',#327,#271,#272);
#220=AXIS2_PLACEMENT_3D('',#329,#273,#274);
#221=AXIS2_PLACEMENT_3D('',#330,#275,#276);
#222=AXIS2_PLACEMENT_3D('',#332,#277,#278);
#223=AXIS2_PLACEMENT_3D('',#334,#279,#280);
#224=AXIS2_PLACEMENT_3D('',#335,#281,#282);
#225=AXIS2_PLACEMENT_3D('',#336,#283,#284);
#226=AXIS2_PLACEMENT_3D('',#337,#285,#286);
#227=AXIS2_PLACEMENT_3D('',#338,#287,#288);
#228=AXIS2_PLACEMENT_3D('',#339,#289,#290);
#229=AXIS2_PLACEMENT_3D('',#340,#291,#292);
#230=AXIS2_PLACEMENT_3D('',#341,#293,#294);
#231=DIRECTION('',(0.,0.,1.));
#232=DIRECTION('',(1.,0.,0.));
#233=DIRECTION('',(0.,0.,1.));
#234=DIRECTION('',(1.,0.,0.));
#235=DIRECTION('',(0.,0.,1.));
#236=DIRECTION('',(1.,0.,0.));
#237=DIRECTION('',(0.,0.,1.));
#238=DIRECTION('',(1.,0.,0.));
#239=DIRECTION('',(0.,0.,1.));
#240=DIRECTION('',(1.,0.,0.));
#241=DIRECTION('',(0.,0.,1.));
#242=DIRECTION('',(1.,0.,0.));
#243=DIRECTION('',(0.,0.,-1.));
#244=DIRECTION('',(-1.,0.,0.));
#245=DIRECTION('',(0.,0.,1.));
#246=DIRECTION('',(1.,0.,0.));
#247=DIRECTION('',(0.,0.,1.));
#248=DIRECTION('',(1.,0.,0.));
#249=DIRECTION('',(0.,0.,-1.));
#250=DIRECTION('',(-1.,0.,0.));
#251=DIRECTION('',(0.,0.,-1.));
#252=DIRECTION('',(-1.,0.,0.));
#253=DIRECTION('',(0.,0.,-1.));
#254=DIRECTION('',(-1.,0.,0.));
#255=DIRECTION('',(0.,0.,1.));
#256=DIRECTION('',(1.,0.,0.));
#257=DIRECTION('',(0.,0.,-1.));
#258=DIRECTION('',(-1.,0.,0.));
#259=DIRECTION('',(0.,0.,1.));
#260=DIRECTION('',(1.,0.,0.));
#261=DIRECTION('',(0.,0.,1.));
#262=DIRECTION('',(1.,0.,0.));
#263=DIRECTION('',(0.,0.,1.));
#264=DIRECTION('',(1.,0.,0.));
#265=DIRECTION('',(0.,0.,1.));
#266=DIRECTION('',(1.,0.,0.));
#267=DIRECTION('',(0.,0.,1.));
#268=DIRECTION('',(1.,0.,0.));
#269=DIRECTION('',(0.,0.,-1.));
#270=DIRECTION('',(-1.,0.,0.));
#271=DIRECTION('',(0.,0.,-1.));
#272=DIRECTION('',(-1.,0.,0.));
#273=DIRECTION('',(0.,0.,-1.));
#274=DIRECTION('',(-1.,0.,0.));
#275=DIRECTION('',(0.,0.,1.));
#276=DIRECTION('',(1.,0.,0.));
#277=DIRECTION('',(0.,0.,1.));
#278=DIRECTION('',(1.,0.,0.));
#279=DIRECTION('',(0.,0.,1.));
#280=DIRECTION('',(1.,0.,0.));
#281=DIRECTION('',(0.,0.,1.));
#282=DIRECTION('',(1.,0.,0.));
#283=DIRECTION('',(0.,0.,1.));
#284=DIRECTION('',(1.,0.,0.));
#285=DIRECTION('',(0.,0.,-1.));
#286=DIRECTION('',(-1.,0.,0.));
#287=DIRECTION('',(0.,0.,-1.));
#288=DIRECTION('',(-1.,0.,0.));
#289=DIRECTION('',(0.,0.,1.));
#290=DIRECTION('',(1.,0.,0.));
#291=DIRECTION('',(0.,0.,1.));
#292=DIRECTION('',(1.,0.,0.));
#293=DIRECTION('',(0.,0.,-1.));
#294=DIRECTION('',(-1.,0.,0.));
#295=CARTESIAN_POINT('',(0.,0.,0.));
#296=CARTESIAN_POINT('',(0.,0.,57.15));
#297=CARTESIAN_POINT('',(0.,0.,-65.5));
#298=CARTESIAN_POINT('',(13.5,0.,-65.5));
#299=CARTESIAN_POINT('',(0.,0.,65.5));
#300=CARTESIAN_POINT('',(13.5,0.,65.5));
#301=CARTESIAN_POINT('',(13.5,0.,-65.5));
#302=CARTESIAN_POINT('',(0.,0.,-65.5));
#303=CARTESIAN_POINT('',(20.2791461415975,0.,-65.5));
#304=CARTESIAN_POINT('',(0.,0.,-65.5));
#305=CARTESIAN_POINT('',(0.,0.,-53.4561325716321));
#306=CARTESIAN_POINT('',(19.0806580123033,0.,-53.4561325716321));
#307=CARTESIAN_POINT('',(0.,0.,-64.3030567089369));
#308=CARTESIAN_POINT('',(21.2595610232192,0.,-64.3030567089369));
#309=CARTESIAN_POINT('',(19.,0.,-53.0546042171637));
#310=CARTESIAN_POINT('',(0.,0.,-53.0546042171637));
#311=CARTESIAN_POINT('',(-18.,0.,-53.0546042171637));
#312=CARTESIAN_POINT('',(0.,0.,-53.0546042171637));
#313=CARTESIAN_POINT('',(-18.5904505714924,0.,-53.0546042171637));
#314=CARTESIAN_POINT('',(0.,0.,57.15));
#315=CARTESIAN_POINT('',(0.,0.,-52.5546042171637));
#316=CARTESIAN_POINT('',(-17.5,0.,-52.5546042171637));
#317=CARTESIAN_POINT('',(0.,0.,52.5546042171637));
#318=CARTESIAN_POINT('',(17.5,0.,52.5546042171637));
#319=CARTESIAN_POINT('',(17.5,0.,53.0546042171637));
#320=CARTESIAN_POINT('',(0.,0.,53.0546042171637));
#321=CARTESIAN_POINT('',(18.,0.,53.0546042171637));
#322=CARTESIAN_POINT('',(0.,0.,53.0546042171637));
#323=CARTESIAN_POINT('',(18.5764364558085,0.,53.0546042171637));
#324=CARTESIAN_POINT('',(0.,0.,53.0546042171637));
#325=CARTESIAN_POINT('',(0.,0.,53.472404723511));
#326=CARTESIAN_POINT('',(-19.0696334177246,0.,53.472404723511));
#327=CARTESIAN_POINT('',(0.,0.,67.0682102933316));
#328=CARTESIAN_POINT('',(-21.3356010126946,0.,67.0682102933316));
#329=CARTESIAN_POINT('',(0.,0.,68.0546042171637));
#330=CARTESIAN_POINT('',(0.,0.,68.219003204469));
#331=CARTESIAN_POINT('',(20.5136060761679,0.,68.219003204469));
#332=CARTESIAN_POINT('',(0.,0.,71.3639392383214));
#333=CARTESIAN_POINT('',(1.64398987305358,0.,71.3639392383214));
#334=CARTESIAN_POINT('',(0.,0.,61.5));
#335=CARTESIAN_POINT('',(13.5,0.,65.5));
#336=CARTESIAN_POINT('',(0.,0.,-64.5));
#337=CARTESIAN_POINT('',(0.,0.,67.2326092806369));
#338=CARTESIAN_POINT('',(0.,0.,-53.5546042171637));
#339=CARTESIAN_POINT('',(0.,0.,53.5546042171637));
#340=CARTESIAN_POINT('',(0.,0.,52.5546042171637));
#341=CARTESIAN_POINT('',(0.,0.,-52.5546042171637));
#342=MECHANICAL_DESIGN_GEOMETRIC_PRESENTATION_REPRESENTATION('',(#188),
#343);
#343=(
GEOMETRIC_REPRESENTATION_CONTEXT(3)
GLOBAL_UNCERTAINTY_ASSIGNED_CONTEXT((#344))
GLOBAL_UNIT_ASSIGNED_CONTEXT((#347,#346,#345))
REPRESENTATION_CONTEXT('7317210','TOP_LEVEL_ASSEMBLY_PART')
);
#344=UNCERTAINTY_MEASURE_WITH_UNIT(LENGTH_MEASURE(0.005),#347,
'DISTANCE_ACCURACY_VALUE','Maximum Tolerance applied to model');
#345=(
NAMED_UNIT(*)
SI_UNIT($,.STERADIAN.)
SOLID_ANGLE_UNIT()
);
#346=(
NAMED_UNIT(*)
PLANE_ANGLE_UNIT()
SI_UNIT($,.RADIAN.)
);
#347=(
LENGTH_UNIT()
NAMED_UNIT(*)
SI_UNIT(.MILLI.,.METRE.)
);
#348=PRODUCT_DEFINITION_SHAPE('','',#349);
#349=PRODUCT_DEFINITION('','',#351,#350);
#350=DESIGN_CONTEXT('',#357,'design');
#351=PRODUCT_DEFINITION_FORMATION_WITH_SPECIFIED_SOURCE('','',#353,
 .NOT_KNOWN.);
#352=PRODUCT_RELATED_PRODUCT_CATEGORY('','',(#353));
#353=PRODUCT('7317210','7317210','7317210',(#355));
#354=PRODUCT_CATEGORY('','');
#355=MECHANICAL_CONTEXT('',#357,'mechanical');
#356=APPLICATION_PROTOCOL_DEFINITION('international standard',
'config_control_design',2010,#357);
#357=APPLICATION_CONTEXT(
'configuration controlled 3D designs of mechanical parts and assemblie
s');
ENDSEC;
END-ISO-10303-21;
