ISO-10303-21;
HEADER;
/* Generated by software containing ST-Developer
 * from STEP Tools, Inc. (www.steptools.com) 
 */
/* OPTION: strings as raw bytes, not using required /X/ escapes */

FILE_DESCRIPTION(
/* description */ ('File 3d .step'),
/* implementation_level */ '2;1');

FILE_NAME(
/* name */ '7317140',
/* time_stamp */ '2019-08-26T13:46:41+02:00',
/* author */ ('Zorzan D.'),
/* organization */ ('Gamm Srl.'),
/* preprocessor_version */ 'ST-DEVELOPER v16.7',
/* originating_system */ 'DEX',
/* authorisation */ $);

FILE_SCHEMA (('AUTOMOTIVE_DESIGN {1 0 10303 214 3 1 1}'));
ENDSEC;

DATA;
#10=PROPERTY_DEFINITION_REPRESENTATION(#14,#12);
#11=PROPERTY_DEFINITION_REPRESENTATION(#15,#13);
#12=REPRESENTATION('',(#16),#303);
#13=REPRESENTATION('',(#17),#303);
#14=PROPERTY_DEFINITION('pmi validation property','',#308);
#15=PROPERTY_DEFINITION('pmi validation property','',#308);
#16=VALUE_REPRESENTATION_ITEM('number of annotations',COUNT_MEASURE(0.));
#17=VALUE_REPRESENTATION_ITEM('number of views',COUNT_MEASURE(0.));
#18=SHAPE_REPRESENTATION_RELATIONSHIP('','',#176,#19);
#19=ADVANCED_BREP_SHAPE_REPRESENTATION('',(#174),#303);
#20=TOROIDAL_SURFACE('',#197,14.8060860411184,1.);
#21=TOROIDAL_SURFACE('',#198,15.3865912277893,1.);
#22=TOROIDAL_SURFACE('',#199,14.5418344129913,0.5);
#23=TOROIDAL_SURFACE('',#201,14.5694062895961,0.5);
#24=TOROIDAL_SURFACE('',#203,15.,0.5);
#25=TOROIDAL_SURFACE('',#204,15.,0.5);
#26=SPHERICAL_SURFACE('',#195,5.);
#27=CONICAL_SURFACE('',#183,15.8973945421877,0.0872664625997166);
#28=CONICAL_SURFACE('',#189,15.,0.148889947609498);
#29=CONICAL_SURFACE('',#192,16.5,1.24737345398597);
#30=PLANE('',#181);
#31=PLANE('',#196);
#32=ORIENTED_EDGE('',*,*,#58,.F.);
#33=ORIENTED_EDGE('',*,*,#59,.T.);
#34=ORIENTED_EDGE('',*,*,#60,.T.);
#35=ORIENTED_EDGE('',*,*,#58,.T.);
#36=ORIENTED_EDGE('',*,*,#61,.T.);
#37=ORIENTED_EDGE('',*,*,#62,.T.);
#38=ORIENTED_EDGE('',*,*,#63,.T.);
#39=ORIENTED_EDGE('',*,*,#64,.T.);
#40=ORIENTED_EDGE('',*,*,#65,.T.);
#41=ORIENTED_EDGE('',*,*,#66,.T.);
#42=ORIENTED_EDGE('',*,*,#67,.T.);
#43=ORIENTED_EDGE('',*,*,#68,.F.);
#44=ORIENTED_EDGE('',*,*,#68,.T.);
#45=ORIENTED_EDGE('',*,*,#59,.F.);
#46=ORIENTED_EDGE('',*,*,#60,.F.);
#47=ORIENTED_EDGE('',*,*,#62,.F.);
#48=ORIENTED_EDGE('',*,*,#66,.F.);
#49=ORIENTED_EDGE('',*,*,#67,.F.);
#50=ORIENTED_EDGE('',*,*,#69,.T.);
#51=ORIENTED_EDGE('',*,*,#61,.F.);
#52=ORIENTED_EDGE('',*,*,#70,.T.);
#53=ORIENTED_EDGE('',*,*,#65,.F.);
#54=ORIENTED_EDGE('',*,*,#64,.F.);
#55=ORIENTED_EDGE('',*,*,#70,.F.);
#56=ORIENTED_EDGE('',*,*,#69,.F.);
#57=ORIENTED_EDGE('',*,*,#63,.F.);
#58=EDGE_CURVE('',#71,#71,#84,.T.);
#59=EDGE_CURVE('',#72,#72,#85,.T.);
#60=EDGE_CURVE('',#73,#73,#86,.F.);
#61=EDGE_CURVE('',#74,#74,#87,.F.);
#62=EDGE_CURVE('',#75,#75,#88,.T.);
#63=EDGE_CURVE('',#76,#76,#89,.T.);
#64=EDGE_CURVE('',#77,#77,#90,.F.);
#65=EDGE_CURVE('',#78,#78,#91,.F.);
#66=EDGE_CURVE('',#79,#79,#92,.T.);
#67=EDGE_CURVE('',#80,#80,#93,.T.);
#68=EDGE_CURVE('',#81,#81,#94,.T.);
#69=EDGE_CURVE('',#82,#82,#95,.T.);
#70=EDGE_CURVE('',#83,#83,#96,.T.);
#71=VERTEX_POINT('',#264);
#72=VERTEX_POINT('',#266);
#73=VERTEX_POINT('',#269);
#74=VERTEX_POINT('',#272);
#75=VERTEX_POINT('',#274);
#76=VERTEX_POINT('',#277);
#77=VERTEX_POINT('',#279);
#78=VERTEX_POINT('',#282);
#79=VERTEX_POINT('',#284);
#80=VERTEX_POINT('',#287);
#81=VERTEX_POINT('',#289);
#82=VERTEX_POINT('',#296);
#83=VERTEX_POINT('',#299);
#84=CIRCLE('',#179,12.);
#85=CIRCLE('',#180,12.);
#86=CIRCLE('',#182,14.8060860411184);
#87=CIRCLE('',#184,15.0399317620372);
#88=CIRCLE('',#185,15.8022807392102);
#89=CIRCLE('',#187,14.5);
#90=CIRCLE('',#188,14.5);
#91=CIRCLE('',#190,15.0638744660302);
#92=CIRCLE('',#191,16.3755275806576);
#93=CIRCLE('',#193,15.7044050514245);
#94=CIRCLE('',#194,1.58906911817604);
#95=CIRCLE('',#200,14.7709172064956);
#96=CIRCLE('',#202,14.784703144798);
#97=EDGE_LOOP('',(#32));
#98=EDGE_LOOP('',(#33));
#99=EDGE_LOOP('',(#34));
#100=EDGE_LOOP('',(#35));
#101=EDGE_LOOP('',(#36));
#102=EDGE_LOOP('',(#37));
#103=EDGE_LOOP('',(#38));
#104=EDGE_LOOP('',(#39));
#105=EDGE_LOOP('',(#40));
#106=EDGE_LOOP('',(#41));
#107=EDGE_LOOP('',(#42));
#108=EDGE_LOOP('',(#43));
#109=EDGE_LOOP('',(#44));
#110=EDGE_LOOP('',(#45));
#111=EDGE_LOOP('',(#46));
#112=EDGE_LOOP('',(#47));
#113=EDGE_LOOP('',(#48));
#114=EDGE_LOOP('',(#49));
#115=EDGE_LOOP('',(#50));
#116=EDGE_LOOP('',(#51));
#117=EDGE_LOOP('',(#52));
#118=EDGE_LOOP('',(#53));
#119=EDGE_LOOP('',(#54));
#120=EDGE_LOOP('',(#55));
#121=EDGE_LOOP('',(#56));
#122=EDGE_LOOP('',(#57));
#123=FACE_BOUND('',#97,.T.);
#124=FACE_BOUND('',#98,.T.);
#125=FACE_BOUND('',#99,.T.);
#126=FACE_BOUND('',#100,.T.);
#127=FACE_BOUND('',#101,.T.);
#128=FACE_BOUND('',#102,.T.);
#129=FACE_BOUND('',#103,.T.);
#130=FACE_BOUND('',#104,.T.);
#131=FACE_BOUND('',#105,.T.);
#132=FACE_BOUND('',#106,.T.);
#133=FACE_BOUND('',#107,.T.);
#134=FACE_BOUND('',#108,.T.);
#135=FACE_BOUND('',#109,.T.);
#136=FACE_BOUND('',#110,.T.);
#137=FACE_BOUND('',#111,.T.);
#138=FACE_BOUND('',#112,.T.);
#139=FACE_BOUND('',#113,.T.);
#140=FACE_BOUND('',#114,.T.);
#141=FACE_BOUND('',#115,.T.);
#142=FACE_BOUND('',#116,.T.);
#143=FACE_BOUND('',#117,.T.);
#144=FACE_BOUND('',#118,.T.);
#145=FACE_BOUND('',#119,.T.);
#146=FACE_BOUND('',#120,.T.);
#147=FACE_BOUND('',#121,.T.);
#148=FACE_BOUND('',#122,.T.);
#149=CYLINDRICAL_SURFACE('',#178,12.);
#150=CYLINDRICAL_SURFACE('',#186,14.5);
#151=ADVANCED_FACE('',(#123,#124),#149,.F.);
#152=ADVANCED_FACE('',(#125,#126),#30,.F.);
#153=ADVANCED_FACE('',(#127,#128),#27,.T.);
#154=ADVANCED_FACE('',(#129,#130),#150,.T.);
#155=ADVANCED_FACE('',(#131,#132),#28,.T.);
#156=ADVANCED_FACE('',(#133,#134),#29,.T.);
#157=ADVANCED_FACE('',(#135),#26,.T.);
#158=ADVANCED_FACE('',(#136),#31,.F.);
#159=ADVANCED_FACE('',(#137,#138),#20,.T.);
#160=ADVANCED_FACE('',(#139,#140),#21,.T.);
#161=ADVANCED_FACE('',(#141,#142),#22,.T.);
#162=ADVANCED_FACE('',(#143,#144),#23,.T.);
#163=ADVANCED_FACE('',(#145,#146),#24,.F.);
#164=ADVANCED_FACE('',(#147,#148),#25,.F.);
#165=CLOSED_SHELL('',(#151,#152,#153,#154,#155,#156,#157,#158,#159,#160,
#161,#162,#163,#164));
#166=STYLED_ITEM('',(#167),#174);
#167=PRESENTATION_STYLE_ASSIGNMENT((#168));
#168=SURFACE_STYLE_USAGE(.BOTH.,#169);
#169=SURFACE_SIDE_STYLE('',(#170));
#170=SURFACE_STYLE_FILL_AREA(#171);
#171=FILL_AREA_STYLE('',(#172));
#172=FILL_AREA_STYLE_COLOUR('',#173);
#173=COLOUR_RGB('',0.200000002980232,0.200000002980232,0.200000002980232);
#174=MANIFOLD_SOLID_BREP('',#165);
#175=SHAPE_DEFINITION_REPRESENTATION(#308,#176);
#176=SHAPE_REPRESENTATION('7317140',(#177),#303);
#177=AXIS2_PLACEMENT_3D('',#261,#205,#206);
#178=AXIS2_PLACEMENT_3D('',#262,#207,#208);
#179=AXIS2_PLACEMENT_3D('',#263,#209,#210);
#180=AXIS2_PLACEMENT_3D('',#265,#211,#212);
#181=AXIS2_PLACEMENT_3D('',#267,#213,#214);
#182=AXIS2_PLACEMENT_3D('',#268,#215,#216);
#183=AXIS2_PLACEMENT_3D('',#270,#217,#218);
#184=AXIS2_PLACEMENT_3D('',#271,#219,#220);
#185=AXIS2_PLACEMENT_3D('',#273,#221,#222);
#186=AXIS2_PLACEMENT_3D('',#275,#223,#224);
#187=AXIS2_PLACEMENT_3D('',#276,#225,#226);
#188=AXIS2_PLACEMENT_3D('',#278,#227,#228);
#189=AXIS2_PLACEMENT_3D('',#280,#229,#230);
#190=AXIS2_PLACEMENT_3D('',#281,#231,#232);
#191=AXIS2_PLACEMENT_3D('',#283,#233,#234);
#192=AXIS2_PLACEMENT_3D('',#285,#235,#236);
#193=AXIS2_PLACEMENT_3D('',#286,#237,#238);
#194=AXIS2_PLACEMENT_3D('',#288,#239,#240);
#195=AXIS2_PLACEMENT_3D('',#290,#241,#242);
#196=AXIS2_PLACEMENT_3D('',#291,#243,#244);
#197=AXIS2_PLACEMENT_3D('',#292,#245,#246);
#198=AXIS2_PLACEMENT_3D('',#293,#247,#248);
#199=AXIS2_PLACEMENT_3D('',#294,#249,#250);
#200=AXIS2_PLACEMENT_3D('',#295,#251,#252);
#201=AXIS2_PLACEMENT_3D('',#297,#253,#254);
#202=AXIS2_PLACEMENT_3D('',#298,#255,#256);
#203=AXIS2_PLACEMENT_3D('',#300,#257,#258);
#204=AXIS2_PLACEMENT_3D('',#301,#259,#260);
#205=DIRECTION('',(0.,0.,1.));
#206=DIRECTION('',(1.,0.,0.));
#207=DIRECTION('',(0.,0.,1.));
#208=DIRECTION('',(1.,0.,0.));
#209=DIRECTION('',(0.,0.,1.));
#210=DIRECTION('',(1.,0.,0.));
#211=DIRECTION('',(0.,0.,1.));
#212=DIRECTION('',(1.,0.,0.));
#213=DIRECTION('',(0.,0.,1.));
#214=DIRECTION('',(1.,0.,0.));
#215=DIRECTION('',(0.,0.,1.));
#216=DIRECTION('',(1.,0.,0.));
#217=DIRECTION('',(0.,0.,-1.));
#218=DIRECTION('',(-1.,0.,0.));
#219=DIRECTION('',(0.,0.,1.));
#220=DIRECTION('',(1.,0.,0.));
#221=DIRECTION('',(0.,0.,1.));
#222=DIRECTION('',(1.,0.,0.));
#223=DIRECTION('',(0.,0.,1.));
#224=DIRECTION('',(1.,0.,0.));
#225=DIRECTION('',(0.,0.,1.));
#226=DIRECTION('',(1.,0.,0.));
#227=DIRECTION('',(0.,0.,1.));
#228=DIRECTION('',(1.,0.,0.));
#229=DIRECTION('',(0.,0.,1.));
#230=DIRECTION('',(1.,0.,0.));
#231=DIRECTION('',(0.,0.,-1.));
#232=DIRECTION('',(-1.,0.,0.));
#233=DIRECTION('',(0.,0.,-1.));
#234=DIRECTION('',(-1.,0.,0.));
#235=DIRECTION('',(0.,0.,-1.));
#236=DIRECTION('',(-1.,0.,0.));
#237=DIRECTION('',(0.,0.,1.));
#238=DIRECTION('',(1.,0.,0.));
#239=DIRECTION('',(0.,0.,1.));
#240=DIRECTION('',(1.,0.,0.));
#241=DIRECTION('',(0.,0.,1.));
#242=DIRECTION('',(1.,0.,0.));
#243=DIRECTION('',(0.,0.,1.));
#244=DIRECTION('',(1.,0.,0.));
#245=DIRECTION('',(0.,0.,1.));
#246=DIRECTION('',(1.,0.,0.));
#247=DIRECTION('',(0.,0.,-1.));
#248=DIRECTION('',(-1.,0.,0.));
#249=DIRECTION('',(0.,0.,-1.));
#250=DIRECTION('',(-1.,0.,0.));
#251=DIRECTION('',(0.,0.,-1.));
#252=DIRECTION('',(-1.,0.,0.));
#253=DIRECTION('',(0.,0.,1.));
#254=DIRECTION('',(1.,0.,0.));
#255=DIRECTION('',(0.,0.,1.));
#256=DIRECTION('',(1.,0.,0.));
#257=DIRECTION('',(0.,0.,1.));
#258=DIRECTION('',(1.,0.,0.));
#259=DIRECTION('',(0.,0.,1.));
#260=DIRECTION('',(1.,0.,0.));
#261=CARTESIAN_POINT('',(0.,0.,0.));
#262=CARTESIAN_POINT('',(0.,0.,57.15));
#263=CARTESIAN_POINT('',(0.,0.,-59.));
#264=CARTESIAN_POINT('',(12.,0.,-59.));
#265=CARTESIAN_POINT('',(0.,0.,59.));
#266=CARTESIAN_POINT('',(12.,0.,59.));
#267=CARTESIAN_POINT('',(12.,0.,-59.));
#268=CARTESIAN_POINT('',(0.,0.,-59.));
#269=CARTESIAN_POINT('',(14.8060860411184,0.,-59.));
#270=CARTESIAN_POINT('',(0.,0.,-59.));
#271=CARTESIAN_POINT('',(0.,0.,-49.1991555752082));
#272=CARTESIAN_POINT('',(15.0399317620372,0.,-49.1991555752082));
#273=CARTESIAN_POINT('',(0.,0.,-57.9128442572524));
#274=CARTESIAN_POINT('',(15.8022807392102,0.,-57.9128442572524));
#275=CARTESIAN_POINT('',(0.,0.,57.15));
#276=CARTESIAN_POINT('',(0.,0.,-48.35386658654));
#277=CARTESIAN_POINT('',(14.5,0.,-48.35386658654));
#278=CARTESIAN_POINT('',(0.,0.,48.3401875715371));
#279=CARTESIAN_POINT('',(14.5,0.,48.3401875715371));
#280=CARTESIAN_POINT('',(0.,0.,48.742733446582));
#281=CARTESIAN_POINT('',(0.,0.,49.1685632201169));
#282=CARTESIAN_POINT('',(-15.0638744660302,0.,49.1685632201169));
#283=CARTESIAN_POINT('',(0.,0.,57.9129173176324));
#284=CARTESIAN_POINT('',(-16.3755275806576,0.,57.9129173176324));
#285=CARTESIAN_POINT('',(0.,0.,58.742733446582));
#286=CARTESIAN_POINT('',(0.,0.,59.0094109087774));
#287=CARTESIAN_POINT('',(15.7044050514245,0.,59.0094109087774));
#288=CARTESIAN_POINT('',(0.,0.,63.7407656910735));
#289=CARTESIAN_POINT('',(1.58906911817604,0.,63.7407656910735));
#290=CARTESIAN_POINT('',(0.,0.,59.));
#291=CARTESIAN_POINT('',(12.,0.,59.));
#292=CARTESIAN_POINT('',(0.,0.,-58.));
#293=CARTESIAN_POINT('',(0.,0.,58.0612577705627));
#294=CARTESIAN_POINT('',(0.,0.,-49.242733446582));
#295=CARTESIAN_POINT('',(0.,0.,-48.7983000165612));
#296=CARTESIAN_POINT('',(-14.7709172064956,0.,-48.7983000165612));
#297=CARTESIAN_POINT('',(0.,0.,49.242733446582));
#298=CARTESIAN_POINT('',(0.,0.,48.7914605090596));
#299=CARTESIAN_POINT('',(14.784703144798,0.,48.7914605090596));
#300=CARTESIAN_POINT('',(0.,0.,48.3401875715371));
#301=CARTESIAN_POINT('',(0.,0.,-48.35386658654));
#302=MECHANICAL_DESIGN_GEOMETRIC_PRESENTATION_REPRESENTATION('',(#166),
#303);
#303=(
GEOMETRIC_REPRESENTATION_CONTEXT(3)
GLOBAL_UNCERTAINTY_ASSIGNED_CONTEXT((#304))
GLOBAL_UNIT_ASSIGNED_CONTEXT((#307,#306,#305))
REPRESENTATION_CONTEXT('7317140','TOP_LEVEL_ASSEMBLY_PART')
);
#304=UNCERTAINTY_MEASURE_WITH_UNIT(LENGTH_MEASURE(0.005),#307,
'DISTANCE_ACCURACY_VALUE','Maximum Tolerance applied to model');
#305=(
NAMED_UNIT(*)
SI_UNIT($,.STERADIAN.)
SOLID_ANGLE_UNIT()
);
#306=(
NAMED_UNIT(*)
PLANE_ANGLE_UNIT()
SI_UNIT($,.RADIAN.)
);
#307=(
LENGTH_UNIT()
NAMED_UNIT(*)
SI_UNIT(.MILLI.,.METRE.)
);
#308=PRODUCT_DEFINITION_SHAPE('','',#309);
#309=PRODUCT_DEFINITION('','',#311,#310);
#310=PRODUCT_DEFINITION_CONTEXT('',#317,'design');
#311=PRODUCT_DEFINITION_FORMATION_WITH_SPECIFIED_SOURCE('','',#313,
 .NOT_KNOWN.);
#312=PRODUCT_RELATED_PRODUCT_CATEGORY('','',(#313));
#313=PRODUCT('7317140','7317140','7317140',(#315));
#314=PRODUCT_CATEGORY('','');
#315=PRODUCT_CONTEXT('',#317,'mechanical');
#316=APPLICATION_PROTOCOL_DEFINITION('international standard',
'automotive_design',2010,#317);
#317=APPLICATION_CONTEXT(
'core data for automotive mechanical design processes');
ENDSEC;
END-ISO-10303-21;
