ISO-10303-21;
HEADER;
/* Generated by software containing ST-Developer
 * from STEP Tools, Inc. (www.steptools.com) 
 */
/* OPTION: strings as raw bytes, not using required /X/ escapes */

FILE_DESCRIPTION(
/* description */ ('File step'),
/* implementation_level */ '2;1');

FILE_NAME(
/* name */ '6339020',
/* time_stamp */ '2022-01-24T15:19:34+01:00',
/* author */ ('Zorzan D.'),
/* organization */ ('Gamm Srl.'),
/* preprocessor_version */ 'ST-DEVELOPER v16.7',
/* originating_system */ 'Solid Edge',
/* authorisation */ 'Unknown');

FILE_SCHEMA (('CONFIG_CONTROL_DESIGN'));
ENDSEC;

DATA;
#10=PROPERTY_DEFINITION_REPRESENTATION(#14,#12);
#11=PROPERTY_DEFINITION_REPRESENTATION(#15,#13);
#12=REPRESENTATION('',(#16),#423);
#13=REPRESENTATION('',(#17),#423);
#14=PROPERTY_DEFINITION('pmi validation property','',#428);
#15=PROPERTY_DEFINITION('pmi validation property','',#428);
#16=VALUE_REPRESENTATION_ITEM('number of annotations',COUNT_MEASURE(0.));
#17=VALUE_REPRESENTATION_ITEM('number of views',COUNT_MEASURE(0.));
#18=SHAPE_REPRESENTATION_RELATIONSHIP('','',#274,#19);
#19=ADVANCED_BREP_SHAPE_REPRESENTATION('',(#272),#423);
#20=VERTEX_LOOP('',#89);
#21=B_SPLINE_CURVE_WITH_KNOTS('',3,(#384,#385,#386,#387,#388,#389,#390,
#391,#392,#393,#394),.UNSPECIFIED.,.T.,.F.,(1,1,1,1,1,1,1,1,1,1,1,1,1,1,
1),(-0.00381037755952891,-0.00254025170635261,-0.0012701258531763,1.08265116118442E-19,
0.0012701258531763,0.0025402517063526,0.00381037755952891,0.00508050341270521,
0.00635062926588151,0.00762075511905781,0.00889088097223412,0.0101610068254104,
0.0114311326785867,0.012701258531763,0.0139713843849393),.UNSPECIFIED.);
#22=B_SPLINE_CURVE_WITH_KNOTS('',3,(#407,#408,#409,#410,#411,#412,#413,
#414,#415,#416,#417,#418,#419),.UNSPECIFIED.,.T.,.F.,(1,1,1,1,1,1,1,1,1,
1,1,1,1,1,1,1,1),(-0.00258370022279255,-0.00129185011139628,-0.000645925055698139,
2.59929414565204E-19,0.00129185011139628,0.00258370022279255,0.00322962527849069,
0.00387555033418883,0.0051674004455851,0.00645925055698138,0.00775110066837766,
0.00904295077977393,0.00968887583547207,0.0103348008911702,0.0116266510025665,
0.0129185011139628,0.0135644261696609),.UNSPECIFIED.);
#23=CYLINDRICAL_SURFACE('',#293,8.);
#24=CYLINDRICAL_SURFACE('',#300,3.);
#25=CYLINDRICAL_SURFACE('',#301,1.621);
#26=CONICAL_SURFACE('',#282,13.,0.0890495826344969);
#27=CONICAL_SURFACE('',#294,3.,1.39626340159546);
#28=CONICAL_SURFACE('',#296,3.5,0.785398163397448);
#29=TOROIDAL_SURFACE('',#280,12.3007924589371,0.2);
#30=TOROIDAL_SURFACE('',#284,12.8007924589371,0.2);
#31=TOROIDAL_SURFACE('',#288,8.5,0.5);
#32=TOROIDAL_SURFACE('',#290,7.,1.);
#33=PLANE('',#278);
#34=PLANE('',#286);
#35=PLANE('',#299);
#36=ORIENTED_EDGE('',*,*,#64,.T.);
#37=ORIENTED_EDGE('',*,*,#64,.F.);
#38=ORIENTED_EDGE('',*,*,#65,.T.);
#39=ORIENTED_EDGE('',*,*,#65,.F.);
#40=ORIENTED_EDGE('',*,*,#66,.T.);
#41=ORIENTED_EDGE('',*,*,#66,.F.);
#42=ORIENTED_EDGE('',*,*,#67,.T.);
#43=ORIENTED_EDGE('',*,*,#67,.F.);
#44=ORIENTED_EDGE('',*,*,#68,.T.);
#45=ORIENTED_EDGE('',*,*,#68,.F.);
#46=ORIENTED_EDGE('',*,*,#69,.T.);
#47=ORIENTED_EDGE('',*,*,#69,.F.);
#48=ORIENTED_EDGE('',*,*,#70,.T.);
#49=ORIENTED_EDGE('',*,*,#71,.F.);
#50=ORIENTED_EDGE('',*,*,#72,.T.);
#51=ORIENTED_EDGE('',*,*,#71,.T.);
#52=ORIENTED_EDGE('',*,*,#70,.F.);
#53=ORIENTED_EDGE('',*,*,#73,.F.);
#54=ORIENTED_EDGE('',*,*,#74,.F.);
#55=ORIENTED_EDGE('',*,*,#75,.F.);
#56=ORIENTED_EDGE('',*,*,#76,.F.);
#57=ORIENTED_EDGE('',*,*,#76,.T.);
#58=ORIENTED_EDGE('',*,*,#72,.F.);
#59=ORIENTED_EDGE('',*,*,#77,.T.);
#60=ORIENTED_EDGE('',*,*,#75,.T.);
#61=ORIENTED_EDGE('',*,*,#74,.T.);
#62=ORIENTED_EDGE('',*,*,#77,.F.);
#63=ORIENTED_EDGE('',*,*,#73,.T.);
#64=EDGE_CURVE('',#78,#78,#93,.T.);
#65=EDGE_CURVE('',#79,#79,#94,.T.);
#66=EDGE_CURVE('',#80,#80,#95,.T.);
#67=EDGE_CURVE('',#81,#81,#96,.T.);
#68=EDGE_CURVE('',#82,#82,#97,.T.);
#69=EDGE_CURVE('',#83,#83,#98,.T.);
#70=EDGE_CURVE('',#84,#84,#99,.T.);
#71=EDGE_CURVE('',#85,#85,#100,.T.);
#72=EDGE_CURVE('',#86,#86,#101,.T.);
#73=EDGE_CURVE('',#87,#87,#21,.T.);
#74=EDGE_CURVE('',#88,#88,#102,.T.);
#75=EDGE_CURVE('',#90,#90,#103,.F.);
#76=EDGE_CURVE('',#91,#91,#104,.T.);
#77=EDGE_CURVE('',#92,#92,#22,.T.);
#78=VERTEX_POINT('',#359);
#79=VERTEX_POINT('',#362);
#80=VERTEX_POINT('',#365);
#81=VERTEX_POINT('',#368);
#82=VERTEX_POINT('',#371);
#83=VERTEX_POINT('',#374);
#84=VERTEX_POINT('',#377);
#85=VERTEX_POINT('',#380);
#86=VERTEX_POINT('',#382);
#87=VERTEX_POINT('',#395);
#88=VERTEX_POINT('',#398);
#89=VERTEX_POINT('',#399);
#90=VERTEX_POINT('',#402);
#91=VERTEX_POINT('',#404);
#92=VERTEX_POINT('',#420);
#93=CIRCLE('',#277,10.75);
#94=CIRCLE('',#279,12.3007924589371);
#95=CIRCLE('',#281,12.5);
#96=CIRCLE('',#283,13.);
#97=CIRCLE('',#285,12.8007924589371);
#98=CIRCLE('',#287,8.5);
#99=CIRCLE('',#289,8.);
#100=CIRCLE('',#291,8.);
#101=CIRCLE('',#292,7.);
#102=CIRCLE('',#295,3.);
#103=CIRCLE('',#297,3.);
#104=CIRCLE('',#298,3.5);
#105=EDGE_LOOP('',(#36));
#106=EDGE_LOOP('',(#37));
#107=EDGE_LOOP('',(#38));
#108=EDGE_LOOP('',(#39));
#109=EDGE_LOOP('',(#40));
#110=EDGE_LOOP('',(#41));
#111=EDGE_LOOP('',(#42));
#112=EDGE_LOOP('',(#43));
#113=EDGE_LOOP('',(#44));
#114=EDGE_LOOP('',(#45));
#115=EDGE_LOOP('',(#46));
#116=EDGE_LOOP('',(#47));
#117=EDGE_LOOP('',(#48));
#118=EDGE_LOOP('',(#49));
#119=EDGE_LOOP('',(#50));
#120=EDGE_LOOP('',(#51));
#121=EDGE_LOOP('',(#52));
#122=EDGE_LOOP('',(#53));
#123=EDGE_LOOP('',(#54));
#124=EDGE_LOOP('',(#55));
#125=EDGE_LOOP('',(#56));
#126=EDGE_LOOP('',(#57));
#127=EDGE_LOOP('',(#58));
#128=EDGE_LOOP('',(#59));
#129=EDGE_LOOP('',(#60));
#130=EDGE_LOOP('',(#61));
#131=EDGE_LOOP('',(#62));
#132=EDGE_LOOP('',(#63));
#133=FACE_BOUND('',#105,.T.);
#134=FACE_BOUND('',#106,.T.);
#135=FACE_BOUND('',#107,.T.);
#136=FACE_BOUND('',#108,.T.);
#137=FACE_BOUND('',#109,.T.);
#138=FACE_BOUND('',#110,.T.);
#139=FACE_BOUND('',#111,.T.);
#140=FACE_BOUND('',#112,.T.);
#141=FACE_BOUND('',#113,.T.);
#142=FACE_BOUND('',#114,.T.);
#143=FACE_BOUND('',#115,.T.);
#144=FACE_BOUND('',#116,.T.);
#145=FACE_BOUND('',#117,.T.);
#146=FACE_BOUND('',#118,.T.);
#147=FACE_BOUND('',#119,.T.);
#148=FACE_BOUND('',#120,.T.);
#149=FACE_BOUND('',#121,.T.);
#150=FACE_BOUND('',#122,.T.);
#151=FACE_BOUND('',#123,.T.);
#152=FACE_BOUND('',#20,.T.);
#153=FACE_BOUND('',#124,.T.);
#154=FACE_BOUND('',#125,.T.);
#155=FACE_BOUND('',#126,.T.);
#156=FACE_BOUND('',#127,.T.);
#157=FACE_BOUND('',#128,.T.);
#158=FACE_BOUND('',#129,.T.);
#159=FACE_BOUND('',#130,.T.);
#160=FACE_BOUND('',#131,.T.);
#161=FACE_BOUND('',#132,.T.);
#162=SPHERICAL_SURFACE('',#276,20.7604166666667);
#163=STYLED_ITEM('',(#176),#257);
#164=STYLED_ITEM('',(#177),#258);
#165=STYLED_ITEM('',(#178),#259);
#166=STYLED_ITEM('',(#179),#260);
#167=STYLED_ITEM('',(#180),#261);
#168=STYLED_ITEM('',(#181),#262);
#169=STYLED_ITEM('',(#182),#263);
#170=STYLED_ITEM('',(#183),#264);
#171=STYLED_ITEM('',(#184),#265);
#172=STYLED_ITEM('',(#185),#266);
#173=STYLED_ITEM('',(#186),#267);
#174=STYLED_ITEM('',(#187),#269);
#175=STYLED_ITEM('',(#188),#270);
#176=PRESENTATION_STYLE_ASSIGNMENT((#189));
#177=PRESENTATION_STYLE_ASSIGNMENT((#190));
#178=PRESENTATION_STYLE_ASSIGNMENT((#191));
#179=PRESENTATION_STYLE_ASSIGNMENT((#192));
#180=PRESENTATION_STYLE_ASSIGNMENT((#193));
#181=PRESENTATION_STYLE_ASSIGNMENT((#194));
#182=PRESENTATION_STYLE_ASSIGNMENT((#195));
#183=PRESENTATION_STYLE_ASSIGNMENT((#196));
#184=PRESENTATION_STYLE_ASSIGNMENT((#197));
#185=PRESENTATION_STYLE_ASSIGNMENT((#198));
#186=PRESENTATION_STYLE_ASSIGNMENT((#199));
#187=PRESENTATION_STYLE_ASSIGNMENT((#200));
#188=PRESENTATION_STYLE_ASSIGNMENT((#201));
#189=SURFACE_STYLE_USAGE(.BOTH.,#202);
#190=SURFACE_STYLE_USAGE(.BOTH.,#203);
#191=SURFACE_STYLE_USAGE(.BOTH.,#204);
#192=SURFACE_STYLE_USAGE(.BOTH.,#205);
#193=SURFACE_STYLE_USAGE(.BOTH.,#206);
#194=SURFACE_STYLE_USAGE(.BOTH.,#207);
#195=SURFACE_STYLE_USAGE(.BOTH.,#208);
#196=SURFACE_STYLE_USAGE(.BOTH.,#209);
#197=SURFACE_STYLE_USAGE(.BOTH.,#210);
#198=SURFACE_STYLE_USAGE(.BOTH.,#211);
#199=SURFACE_STYLE_USAGE(.BOTH.,#212);
#200=SURFACE_STYLE_USAGE(.BOTH.,#213);
#201=SURFACE_STYLE_USAGE(.BOTH.,#214);
#202=SURFACE_SIDE_STYLE('',(#215));
#203=SURFACE_SIDE_STYLE('',(#216));
#204=SURFACE_SIDE_STYLE('',(#217));
#205=SURFACE_SIDE_STYLE('',(#218));
#206=SURFACE_SIDE_STYLE('',(#219));
#207=SURFACE_SIDE_STYLE('',(#220));
#208=SURFACE_SIDE_STYLE('',(#221));
#209=SURFACE_SIDE_STYLE('',(#222));
#210=SURFACE_SIDE_STYLE('',(#223));
#211=SURFACE_SIDE_STYLE('',(#224));
#212=SURFACE_SIDE_STYLE('',(#225));
#213=SURFACE_SIDE_STYLE('',(#226));
#214=SURFACE_SIDE_STYLE('',(#227));
#215=SURFACE_STYLE_FILL_AREA(#228);
#216=SURFACE_STYLE_FILL_AREA(#229);
#217=SURFACE_STYLE_FILL_AREA(#230);
#218=SURFACE_STYLE_FILL_AREA(#231);
#219=SURFACE_STYLE_FILL_AREA(#232);
#220=SURFACE_STYLE_FILL_AREA(#233);
#221=SURFACE_STYLE_FILL_AREA(#234);
#222=SURFACE_STYLE_FILL_AREA(#235);
#223=SURFACE_STYLE_FILL_AREA(#236);
#224=SURFACE_STYLE_FILL_AREA(#237);
#225=SURFACE_STYLE_FILL_AREA(#238);
#226=SURFACE_STYLE_FILL_AREA(#239);
#227=SURFACE_STYLE_FILL_AREA(#240);
#228=FILL_AREA_STYLE('',(#241));
#229=FILL_AREA_STYLE('',(#242));
#230=FILL_AREA_STYLE('',(#243));
#231=FILL_AREA_STYLE('',(#244));
#232=FILL_AREA_STYLE('',(#245));
#233=FILL_AREA_STYLE('',(#246));
#234=FILL_AREA_STYLE('',(#247));
#235=FILL_AREA_STYLE('',(#248));
#236=FILL_AREA_STYLE('',(#249));
#237=FILL_AREA_STYLE('',(#250));
#238=FILL_AREA_STYLE('',(#251));
#239=FILL_AREA_STYLE('',(#252));
#240=FILL_AREA_STYLE('',(#253));
#241=FILL_AREA_STYLE_COLOUR('',#254);
#242=FILL_AREA_STYLE_COLOUR('',#254);
#243=FILL_AREA_STYLE_COLOUR('',#254);
#244=FILL_AREA_STYLE_COLOUR('',#254);
#245=FILL_AREA_STYLE_COLOUR('',#254);
#246=FILL_AREA_STYLE_COLOUR('',#254);
#247=FILL_AREA_STYLE_COLOUR('',#254);
#248=FILL_AREA_STYLE_COLOUR('',#254);
#249=FILL_AREA_STYLE_COLOUR('',#254);
#250=FILL_AREA_STYLE_COLOUR('',#255);
#251=FILL_AREA_STYLE_COLOUR('',#255);
#252=FILL_AREA_STYLE_COLOUR('',#255);
#253=FILL_AREA_STYLE_COLOUR('',#256);
#254=COLOUR_RGB('',0.200000002980232,0.200000002980232,0.200000002980232);
#255=COLOUR_RGB('',0.71399998664856,0.428400009870529,0.181400001049042);
#256=COLOUR_RGB('',0.752941191196442,0.752941191196442,0.752941191196442);
#257=ADVANCED_FACE('',(#133),#162,.T.);
#258=ADVANCED_FACE('',(#134,#135),#33,.F.);
#259=ADVANCED_FACE('',(#136,#137),#29,.T.);
#260=ADVANCED_FACE('',(#138,#139),#26,.T.);
#261=ADVANCED_FACE('',(#140,#141),#30,.T.);
#262=ADVANCED_FACE('',(#142,#143),#34,.F.);
#263=ADVANCED_FACE('',(#144,#145),#31,.F.);
#264=ADVANCED_FACE('',(#146,#147),#32,.T.);
#265=ADVANCED_FACE('',(#148,#149,#150),#23,.T.);
#266=ADVANCED_FACE('',(#151,#152),#27,.F.);
#267=ADVANCED_FACE('',(#153,#154),#28,.F.);
#268=ADVANCED_FACE('',(#155,#156),#35,.F.);
#269=ADVANCED_FACE('',(#157,#158,#159),#24,.F.);
#270=ADVANCED_FACE('',(#160,#161),#25,.F.);
#271=CLOSED_SHELL('',(#257,#258,#259,#260,#261,#262,#263,#264,#265,#266,
#267,#268,#269,#270));
#272=MANIFOLD_SOLID_BREP('1801057_foro_lat',#271);
#273=SHAPE_DEFINITION_REPRESENTATION(#428,#274);
#274=SHAPE_REPRESENTATION('Parte16',(#275),#423);
#275=AXIS2_PLACEMENT_3D('',#356,#302,#303);
#276=AXIS2_PLACEMENT_3D('',#357,#304,#305);
#277=AXIS2_PLACEMENT_3D('',#358,#306,#307);
#278=AXIS2_PLACEMENT_3D('',#360,#308,#309);
#279=AXIS2_PLACEMENT_3D('',#361,#310,#311);
#280=AXIS2_PLACEMENT_3D('',#363,#312,#313);
#281=AXIS2_PLACEMENT_3D('',#364,#314,#315);
#282=AXIS2_PLACEMENT_3D('',#366,#316,#317);
#283=AXIS2_PLACEMENT_3D('',#367,#318,#319);
#284=AXIS2_PLACEMENT_3D('',#369,#320,#321);
#285=AXIS2_PLACEMENT_3D('',#370,#322,#323);
#286=AXIS2_PLACEMENT_3D('',#372,#324,#325);
#287=AXIS2_PLACEMENT_3D('',#373,#326,#327);
#288=AXIS2_PLACEMENT_3D('',#375,#328,#329);
#289=AXIS2_PLACEMENT_3D('',#376,#330,#331);
#290=AXIS2_PLACEMENT_3D('',#378,#332,#333);
#291=AXIS2_PLACEMENT_3D('',#379,#334,#335);
#292=AXIS2_PLACEMENT_3D('',#381,#336,#337);
#293=AXIS2_PLACEMENT_3D('',#383,#338,#339);
#294=AXIS2_PLACEMENT_3D('',#396,#340,#341);
#295=AXIS2_PLACEMENT_3D('',#397,#342,#343);
#296=AXIS2_PLACEMENT_3D('',#400,#344,#345);
#297=AXIS2_PLACEMENT_3D('',#401,#346,#347);
#298=AXIS2_PLACEMENT_3D('',#403,#348,#349);
#299=AXIS2_PLACEMENT_3D('',#405,#350,#351);
#300=AXIS2_PLACEMENT_3D('',#406,#352,#353);
#301=AXIS2_PLACEMENT_3D('',#421,#354,#355);
#302=DIRECTION('',(0.,0.,1.));
#303=DIRECTION('',(1.,0.,0.));
#304=DIRECTION('',(0.,0.,1.));
#305=DIRECTION('',(6.12303176911189E-17,1.,0.));
#306=DIRECTION('',(0.,0.,1.));
#307=DIRECTION('',(1.,0.,0.));
#308=DIRECTION('',(0.,0.,-1.));
#309=DIRECTION('',(-1.,0.,0.));
#310=DIRECTION('',(0.,0.,1.));
#311=DIRECTION('',(1.,0.,0.));
#312=DIRECTION('',(0.,0.,1.));
#313=DIRECTION('',(1.,0.,0.));
#314=DIRECTION('',(0.,0.,1.));
#315=DIRECTION('',(1.,0.,0.));
#316=DIRECTION('',(0.,0.,-1.));
#317=DIRECTION('',(-1.,0.,0.));
#318=DIRECTION('',(0.,0.,1.));
#319=DIRECTION('',(1.,0.,0.));
#320=DIRECTION('',(0.,0.,1.));
#321=DIRECTION('',(1.,0.,0.));
#322=DIRECTION('',(0.,0.,1.));
#323=DIRECTION('',(1.,0.,0.));
#324=DIRECTION('',(0.,0.,1.));
#325=DIRECTION('',(1.,0.,0.));
#326=DIRECTION('',(0.,0.,1.));
#327=DIRECTION('',(1.,0.,0.));
#328=DIRECTION('',(0.,0.,1.));
#329=DIRECTION('',(1.,0.,0.));
#330=DIRECTION('',(0.,0.,1.));
#331=DIRECTION('',(1.,0.,0.));
#332=DIRECTION('',(0.,0.,1.));
#333=DIRECTION('',(1.,0.,0.));
#334=DIRECTION('',(0.,0.,1.));
#335=DIRECTION('',(1.,0.,0.));
#336=DIRECTION('',(0.,0.,1.));
#337=DIRECTION('',(1.,0.,0.));
#338=DIRECTION('',(0.,0.,1.));
#339=DIRECTION('',(1.,0.,0.));
#340=DIRECTION('',(-6.16297582203915E-33,-1.23259516440783E-32,-1.));
#341=DIRECTION('',(1.,3.08148791101958E-33,0.));
#342=DIRECTION('',(6.16297582203915E-33,1.23259516440783E-32,1.));
#343=DIRECTION('',(1.,3.08148791101958E-33,0.));
#344=DIRECTION('',(-6.16297582203915E-33,-1.23259516440783E-32,-1.));
#345=DIRECTION('',(2.22044604925031E-16,-1.,0.));
#346=DIRECTION('',(6.16297582203915E-33,1.23259516440783E-32,1.));
#347=DIRECTION('',(-2.22044604925031E-16,1.,0.));
#348=DIRECTION('',(6.16297582203915E-33,1.23259516440783E-32,1.));
#349=DIRECTION('',(-2.22044604925031E-16,1.,0.));
#350=DIRECTION('',(6.16297582203915E-33,1.23259516440783E-32,1.));
#351=DIRECTION('',(-2.22044604925031E-16,1.,0.));
#352=DIRECTION('',(6.16297582203915E-33,1.23259516440783E-32,1.));
#353=DIRECTION('',(-1.,-3.08148791101958E-33,0.));
#354=DIRECTION('',(1.,3.08148791101958E-33,0.));
#355=DIRECTION('',(-6.16297582203915E-33,-1.23259516440783E-32,-1.));
#356=CARTESIAN_POINT('',(0.,0.,0.));
#357=CARTESIAN_POINT('',(5.31088347701509E-32,8.67361737988404E-16,-5.76041666666667));
#358=CARTESIAN_POINT('',(-1.43568159340735E-43,-2.34472341079424E-27,12.));
#359=CARTESIAN_POINT('',(10.75,-2.34472341079424E-27,12.));
#360=CARTESIAN_POINT('',(7.53181430113238E-16,12.3007924589371,12.));
#361=CARTESIAN_POINT('',(-1.43568159340735E-43,-2.34472341079424E-27,12.));
#362=CARTESIAN_POINT('',(12.3007924589371,-2.34472341079424E-27,12.));
#363=CARTESIAN_POINT('',(0.,0.,11.8));
#364=CARTESIAN_POINT('',(-1.43568159340735E-43,-2.34472341079424E-27,11.8177863875949));
#365=CARTESIAN_POINT('',(12.5,-2.34472341079424E-27,11.8177863875949));
#366=CARTESIAN_POINT('',(-1.43568159340735E-43,-2.34472341079424E-27,6.21778638759486));
#367=CARTESIAN_POINT('',(-1.43568159340735E-43,-2.34472341079424E-27,6.21778638759486));
#368=CARTESIAN_POINT('',(13.,-2.34472341079424E-27,6.21778638759486));
#369=CARTESIAN_POINT('',(0.,0.,6.19999999999995));
#370=CARTESIAN_POINT('',(-1.43568159340735E-43,-2.34472341079424E-27,6.));
#371=CARTESIAN_POINT('',(12.8007924589371,-2.34472341079424E-27,6.));
#372=CARTESIAN_POINT('',(5.20457700374511E-16,8.5,6.));
#373=CARTESIAN_POINT('',(-1.43568159340735E-43,-2.34472341079424E-27,6.));
#374=CARTESIAN_POINT('',(8.5,-2.34472341079424E-27,6.));
#375=CARTESIAN_POINT('',(0.,0.,5.5));
#376=CARTESIAN_POINT('',(-1.43568159340735E-43,-2.34472341079424E-27,5.5));
#377=CARTESIAN_POINT('',(8.,-2.34472341079424E-27,5.5));
#378=CARTESIAN_POINT('',(0.,0.,1.));
#379=CARTESIAN_POINT('',(-1.43568159340735E-43,-2.34472341079424E-27,1.));
#380=CARTESIAN_POINT('',(8.,-2.34472341079424E-27,1.));
#381=CARTESIAN_POINT('',(-1.43568159340735E-43,-2.34472341079424E-27,3.46944695195361E-15));
#382=CARTESIAN_POINT('',(7.,-2.34472341079424E-27,3.46944695195361E-15));
#383=CARTESIAN_POINT('',(-1.43568159340735E-43,-2.34472341079424E-27,14.));
#384=CARTESIAN_POINT('',(7.91769554546451,-1.27158391854341,1.73089261665092));
#385=CARTESIAN_POINT('',(8.04111761354769,0.000282003027403139,1.20313421095611));
#386=CARTESIAN_POINT('',(7.91783400034475,1.2704559064338,1.73057053952464));
#387=CARTESIAN_POINT('',(7.79215706157996,1.79626368914482,2.99831200116879));
#388=CARTESIAN_POINT('',(7.91784561670837,1.2704876037591,4.27037501586538));
#389=CARTESIAN_POINT('',(8.04100795785579,0.00059161518542421,4.79602300285123));
#390=CARTESIAN_POINT('',(7.91812238918176,-1.26890211254212,4.27153216983414));
#391=CARTESIAN_POINT('',(7.7921225148814,-1.79637790088873,3.00108958801576));
#392=CARTESIAN_POINT('',(7.91769554546451,-1.27158391854341,1.73089261665092));
#393=CARTESIAN_POINT('',(8.04111761354769,0.000282003027403139,1.20313421095611));
#394=CARTESIAN_POINT('',(7.91783400034475,1.2704559064338,1.73057053952464));
#395=CARTESIAN_POINT('',(8.,1.11448724731061E-16,1.379));
#396=CARTESIAN_POINT('',(1.08420217248551E-16,1.22783887916553E-31,10.5));
#397=CARTESIAN_POINT('',(1.08420217248551E-16,1.22783887916553E-31,10.5));
#398=CARTESIAN_POINT('',(3.,1.32028351649612E-31,10.5));
#399=CARTESIAN_POINT('',(1.08420217248551E-16,1.2930408142983E-31,11.0289809421254));
#400=CARTESIAN_POINT('',(1.0842021724855E-16,-6.63860434626882E-33,3.84220243511771E-15));
#401=CARTESIAN_POINT('',(1.0842021724855E-16,-4.75628524229667E-34,0.500000000000004));
#402=CARTESIAN_POINT('',(-5.57713597526543E-16,3.,0.500000000000004));
#403=CARTESIAN_POINT('',(1.0842021724855E-16,-6.63860434626882E-33,3.84220243511771E-15));
#404=CARTESIAN_POINT('',(-6.68735899989059E-16,3.5,3.84220243511771E-15));
#405=CARTESIAN_POINT('',(-2.16840434497101E-15,1.32772086925377E-31,3.84220243511771E-15));
#406=CARTESIAN_POINT('',(1.0842021724855E-16,-6.63860434626882E-33,3.81158727627215E-15));
#407=CARTESIAN_POINT('',(2.94972386868624,-0.651766579520217,1.47013381646712));
#408=CARTESIAN_POINT('',(3.05216274791057,0.221214023174974,1.28863282511529));
#409=CARTESIAN_POINT('',(2.78191592537366,1.26790668902632,1.73663549162677));
#410=CARTESIAN_POINT('',(2.46275613812487,1.70934177340885,2.77353740098801));
#411=CARTESIAN_POINT('',(2.5837300876605,1.53258047217983,3.64534975019305));
#412=CARTESIAN_POINT('',(2.83738160606042,1.0641032327193,4.34573569089831));
#413=CARTESIAN_POINT('',(3.10842413780651,0.00762392386619385,4.80060631138042));
#414=CARTESIAN_POINT('',(2.78309455642638,-1.26999863934652,4.26874694574677));
#415=CARTESIAN_POINT('',(2.39643391128272,-1.7980273998297,3.00864201890944));
#416=CARTESIAN_POINT('',(2.71384333244855,-1.35286724506187,1.94298244044076));
#417=CARTESIAN_POINT('',(2.94972386868624,-0.651766579520217,1.47013381646712));
#418=CARTESIAN_POINT('',(3.05216274791057,0.221214023174974,1.28863282511529));
#419=CARTESIAN_POINT('',(2.78191592537366,1.26790668902632,1.73663549162677));
#420=CARTESIAN_POINT('',(3.,-1.23584102931474E-16,1.379));
#421=CARTESIAN_POINT('',(-10.2530990148117,5.38305426760595E-33,3.));
#422=MECHANICAL_DESIGN_GEOMETRIC_PRESENTATION_REPRESENTATION('',(#163,#164,
#165,#166,#167,#168,#169,#170,#171,#172,#173,#174,#175),#423);
#423=(
GEOMETRIC_REPRESENTATION_CONTEXT(3)
GLOBAL_UNCERTAINTY_ASSIGNED_CONTEXT((#424))
GLOBAL_UNIT_ASSIGNED_CONTEXT((#427,#426,#425))
REPRESENTATION_CONTEXT('Parte16','TOP_LEVEL_ASSEMBLY_PART')
);
#424=UNCERTAINTY_MEASURE_WITH_UNIT(LENGTH_MEASURE(0.005),#427,
'DISTANCE_ACCURACY_VALUE','Maximum Tolerance applied to model');
#425=(
NAMED_UNIT(*)
SI_UNIT($,.STERADIAN.)
SOLID_ANGLE_UNIT()
);
#426=(
NAMED_UNIT(*)
PLANE_ANGLE_UNIT()
SI_UNIT($,.RADIAN.)
);
#427=(
LENGTH_UNIT()
NAMED_UNIT(*)
SI_UNIT(.MILLI.,.METRE.)
);
#428=PRODUCT_DEFINITION_SHAPE('','',#429);
#429=PRODUCT_DEFINITION('','',#431,#430);
#430=DESIGN_CONTEXT('',#437,'design');
#431=PRODUCT_DEFINITION_FORMATION_WITH_SPECIFIED_SOURCE('','',#433,
 .NOT_KNOWN.);
#432=PRODUCT_RELATED_PRODUCT_CATEGORY('','',(#433));
#433=PRODUCT('Parte16','Parte16','Parte16',(#435));
#434=PRODUCT_CATEGORY('','');
#435=MECHANICAL_CONTEXT('',#437,'mechanical');
#436=APPLICATION_PROTOCOL_DEFINITION('international standard',
'config_control_design',2010,#437);
#437=APPLICATION_CONTEXT(
'configuration controlled 3D designs of mechanical parts and assemblie
s');
ENDSEC;
END-ISO-10303-21;
