ISO-10303-21;
HEADER;
FILE_DESCRIPTION( ( 'Unknown' ), '1' );
FILE_NAME( 'E:/98-Dis_3D_per_controllo/ZB/6332055_ZB15_M05/6332055_ZB15_M05.stp', 'Unknown', ( 'Unknown' ), ( 'Unknown' ), 'PSStep 11.0', 'Unknown', '  ' );
FILE_SCHEMA( ( 'AUTOMOTIVE_DESIGN { 1 0 10303 214 1 1 1 1 }' ) );
ENDSEC;
DATA;
#1 = MECHANICAL_DESIGN_GEOMETRIC_PRESENTATION_REPRESENTATION( ' ', ( #10, #11, #12, #13, #14, #15, #16, #17, #18, #19, #20, #21, #22, #23 ), #6 );
#2 = PRODUCT_DEFINITION_CONTEXT( '', #24, 'design' );
#3 = APPLICATION_PROTOCOL_DEFINITION( 'INTERNATIONAL STANDARD', 'automotive_design', 2001, #24 );
#4 = PRODUCT_CATEGORY_RELATIONSHIP( 'NONE', 'NONE', #25, #26 );
#5 = SHAPE_DEFINITION_REPRESENTATION( #27, #28 );
#6 =  ( GEOMETRIC_REPRESENTATION_CONTEXT( 3 )GLOBAL_UNCERTAINTY_ASSIGNED_CONTEXT( ( #31 ) )GLOBAL_UNIT_ASSIGNED_CONTEXT( ( #33, #34, #35 ) )REPRESENTATION_CONTEXT( 'NONE', 'WORKSPACE' ) );
#10 = STYLED_ITEM( '', ( #37 ), #38 );
#11 = STYLED_ITEM( '', ( #39 ), #40 );
#12 = STYLED_ITEM( '', ( #41 ), #42 );
#13 = STYLED_ITEM( '', ( #43 ), #44 );
#14 = STYLED_ITEM( '', ( #45 ), #46 );
#15 = STYLED_ITEM( '', ( #47 ), #48 );
#16 = STYLED_ITEM( '', ( #49 ), #50 );
#17 = STYLED_ITEM( '', ( #51 ), #52 );
#18 = STYLED_ITEM( '', ( #53 ), #54 );
#19 = STYLED_ITEM( '', ( #55 ), #56 );
#20 = STYLED_ITEM( '', ( #57 ), #58 );
#21 = STYLED_ITEM( '', ( #59 ), #60 );
#22 = STYLED_ITEM( '', ( #61 ), #62 );
#23 = STYLED_ITEM( '', ( #63 ), #64 );
#24 = APPLICATION_CONTEXT( 'core data for automotive mechanical design processes' );
#25 = PRODUCT_CATEGORY( 'part', 'NONE' );
#26 = PRODUCT_RELATED_PRODUCT_CATEGORY( 'detail', ' ', ( #65 ) );
#27 = PRODUCT_DEFINITION_SHAPE( 'NONE', 'NONE', #66 );
#28 = ADVANCED_BREP_SHAPE_REPRESENTATION( '6332055', ( #67, #68 ), #6 );
#31 = UNCERTAINTY_MEASURE_WITH_UNIT( LENGTH_MEASURE( 0.00100000000000000 ), #33, '', '' );
#33 =  ( CONVERSION_BASED_UNIT( 'MILLIMETRE', #71 )LENGTH_UNIT(  )NAMED_UNIT( #74 ) );
#34 =  ( NAMED_UNIT( #76 )PLANE_ANGLE_UNIT(  )SI_UNIT( $, .RADIAN. ) );
#35 =  ( NAMED_UNIT( #76 )SI_UNIT( $, .STERADIAN. )SOLID_ANGLE_UNIT(  ) );
#37 = PRESENTATION_STYLE_ASSIGNMENT( ( #82 ) );
#38 = ADVANCED_FACE( '', ( #83, #84 ), #85, .T. );
#39 = PRESENTATION_STYLE_ASSIGNMENT( ( #86 ) );
#40 = ADVANCED_FACE( '', ( #87, #88 ), #89, .F. );
#41 = PRESENTATION_STYLE_ASSIGNMENT( ( #90 ) );
#42 = ADVANCED_FACE( '', ( #91, #92 ), #93, .F. );
#43 = PRESENTATION_STYLE_ASSIGNMENT( ( #94 ) );
#44 = ADVANCED_FACE( '', ( #95, #96 ), #97, .F. );
#45 = PRESENTATION_STYLE_ASSIGNMENT( ( #98 ) );
#46 = ADVANCED_FACE( '', ( #99, #100 ), #101, .T. );
#47 = PRESENTATION_STYLE_ASSIGNMENT( ( #102 ) );
#48 = ADVANCED_FACE( '', ( #103, #104 ), #105, .F. );
#49 = PRESENTATION_STYLE_ASSIGNMENT( ( #106 ) );
#50 = ADVANCED_FACE( '', ( #107, #108 ), #109, .F. );
#51 = PRESENTATION_STYLE_ASSIGNMENT( ( #110 ) );
#52 = ADVANCED_FACE( '', ( #111, #112 ), #113, .T. );
#53 = PRESENTATION_STYLE_ASSIGNMENT( ( #114 ) );
#54 = ADVANCED_FACE( '', ( #115, #116 ), #117, .T. );
#55 = PRESENTATION_STYLE_ASSIGNMENT( ( #118 ) );
#56 = ADVANCED_FACE( '', ( #119, #120 ), #121, .F. );
#57 = PRESENTATION_STYLE_ASSIGNMENT( ( #122 ) );
#58 = ADVANCED_FACE( '', ( #123, #124 ), #125, .T. );
#59 = PRESENTATION_STYLE_ASSIGNMENT( ( #126 ) );
#60 = ADVANCED_FACE( '', ( #127, #128 ), #129, .F. );
#61 = PRESENTATION_STYLE_ASSIGNMENT( ( #130 ) );
#62 = ADVANCED_FACE( '', ( #131 ), #132, .T. );
#63 = PRESENTATION_STYLE_ASSIGNMENT( ( #133 ) );
#64 = ADVANCED_FACE( '', ( #134, #135 ), #136, .T. );
#65 = PRODUCT( '6332055', '6332055', 'PART-6332055-DESC', ( #137 ) );
#66 = PRODUCT_DEFINITION( 'NONE', 'NONE', #138, #2 );
#67 = MANIFOLD_SOLID_BREP( '6332055', #139 );
#68 = AXIS2_PLACEMENT_3D( '', #140, #141, #142 );
#71 = LENGTH_MEASURE_WITH_UNIT( LENGTH_MEASURE( 1.00000000000000 ), #143 );
#74 = DIMENSIONAL_EXPONENTS( 1.00000000000000, 0.000000000000000, 0.000000000000000, 0.000000000000000, 0.000000000000000, 0.000000000000000, 0.000000000000000 );
#76 = DIMENSIONAL_EXPONENTS( 0.000000000000000, 0.000000000000000, 0.000000000000000, 0.000000000000000, 0.000000000000000, 0.000000000000000, 0.000000000000000 );
#82 = SURFACE_STYLE_USAGE( .BOTH., #144 );
#83 = FACE_OUTER_BOUND( '', #145, .T. );
#84 = FACE_OUTER_BOUND( '', #146, .T. );
#85 = TOROIDAL_SURFACE( '', #147, 5.00000000000000, 0.500000000000000 );
#86 = SURFACE_STYLE_USAGE( .BOTH., #148 );
#87 = FACE_OUTER_BOUND( '', #149, .T. );
#88 = FACE_OUTER_BOUND( '', #150, .T. );
#89 = CYLINDRICAL_SURFACE( '', #151, 2.06700000000000 );
#90 = SURFACE_STYLE_USAGE( .BOTH., #152 );
#91 = FACE_OUTER_BOUND( '', #153, .T. );
#92 = FACE_BOUND( '', #154, .T. );
#93 = CONICAL_SURFACE( '', #155, 2.06700000000000, 1.02974425867665 );
#94 = SURFACE_STYLE_USAGE( .BOTH., #156 );
#95 = FACE_OUTER_BOUND( '', #157, .T. );
#96 = FACE_BOUND( '', #158, .T. );
#97 = PLANE( '', #159 );
#98 = SURFACE_STYLE_USAGE( .BOTH., #160 );
#99 = FACE_BOUND( '', #161, .T. );
#100 = FACE_OUTER_BOUND( '', #162, .T. );
#101 = CONICAL_SURFACE( '', #163, 7.50000000000000, 0.107770510795142 );
#102 = SURFACE_STYLE_USAGE( .BOTH., #164 );
#103 = FACE_BOUND( '', #165, .T. );
#104 = FACE_OUTER_BOUND( '', #166, .T. );
#105 = PLANE( '', #167 );
#106 = SURFACE_STYLE_USAGE( .BOTH., #168 );
#107 = FACE_OUTER_BOUND( '', #169, .T. );
#108 = FACE_BOUND( '', #170, .T. );
#109 = PLANE( '', #171 );
#110 = SURFACE_STYLE_USAGE( .BOTH., #172 );
#111 = FACE_OUTER_BOUND( '', #173, .T. );
#112 = FACE_OUTER_BOUND( '', #174, .T. );
#113 = CYLINDRICAL_SURFACE( '', #175, 5.50000000000000 );
#114 = SURFACE_STYLE_USAGE( .BOTH., #176 );
#115 = FACE_OUTER_BOUND( '', #177, .T. );
#116 = FACE_OUTER_BOUND( '', #178, .T. );
#117 = TOROIDAL_SURFACE( '', #179, 7.30000000000000, 0.200000000000000 );
#118 = SURFACE_STYLE_USAGE( .BOTH., #180 );
#119 = FACE_BOUND( '', #181, .T. );
#120 = FACE_OUTER_BOUND( '', #182, .T. );
#121 = CONICAL_SURFACE( '', #183, 2.56700000000000, 0.785398163397448 );
#122 = SURFACE_STYLE_USAGE( .BOTH., #184 );
#123 = FACE_OUTER_BOUND( '', #185, .T. );
#124 = FACE_OUTER_BOUND( '', #186, .T. );
#125 = TOROIDAL_SURFACE( '', #187, 6.80116032459969, 0.200000000000000 );
#126 = SURFACE_STYLE_USAGE( .BOTH., #188 );
#127 = FACE_OUTER_BOUND( '', #189, .T. );
#128 = FACE_OUTER_BOUND( '', #190, .T. );
#129 = CYLINDRICAL_SURFACE( '', #191, 2.06700000000000 );
#130 = SURFACE_STYLE_USAGE( .BOTH., #192 );
#131 = FACE_OUTER_BOUND( '', #193, .T. );
#132 = SPHERICAL_SURFACE( '', #194, 9.62857142857139 );
#133 = SURFACE_STYLE_USAGE( .BOTH., #195 );
#134 = FACE_OUTER_BOUND( '', #196, .T. );
#135 = FACE_OUTER_BOUND( '', #197, .T. );
#136 = CYLINDRICAL_SURFACE( '', #198, 7.50000000000000 );
#137 = PRODUCT_CONTEXT( '', #24, 'mechanical' );
#138 = PRODUCT_DEFINITION_FORMATION_WITH_SPECIFIED_SOURCE( ' ', 'NONE', #65, .NOT_KNOWN. );
#139 = CLOSED_SHELL( '', ( #50, #38, #42, #56, #60, #40, #52, #44, #54, #64, #46, #58, #48, #62 ) );
#140 = CARTESIAN_POINT( '', ( 0.000000000000000, 0.000000000000000, 0.000000000000000 ) );
#141 = DIRECTION( '', ( 0.000000000000000, 0.000000000000000, 1.00000000000000 ) );
#142 = DIRECTION( '', ( 1.00000000000000, 0.000000000000000, 0.000000000000000 ) );
#143 =  ( LENGTH_UNIT(  )NAMED_UNIT( #74 )SI_UNIT( .MILLI., .METRE. ) );
#144 = SURFACE_SIDE_STYLE( '', ( #200 ) );
#145 = EDGE_LOOP( '', ( #201 ) );
#146 = EDGE_LOOP( '', ( #202 ) );
#147 = AXIS2_PLACEMENT_3D( '', #203, #204, #205 );
#148 = SURFACE_SIDE_STYLE( '', ( #206 ) );
#149 = EDGE_LOOP( '', ( #207 ) );
#150 = EDGE_LOOP( '', ( #208 ) );
#151 = AXIS2_PLACEMENT_3D( '', #209, #210, #211 );
#152 = SURFACE_SIDE_STYLE( '', ( #212 ) );
#153 = EDGE_LOOP( '', ( #213 ) );
#154 = VERTEX_LOOP( '', #214 );
#155 = AXIS2_PLACEMENT_3D( '', #215, #216, #217 );
#156 = SURFACE_SIDE_STYLE( '', ( #218 ) );
#157 = EDGE_LOOP( '', ( #219 ) );
#158 = EDGE_LOOP( '', ( #220 ) );
#159 = AXIS2_PLACEMENT_3D( '', #221, #222, #223 );
#160 = SURFACE_SIDE_STYLE( '', ( #224 ) );
#161 = EDGE_LOOP( '', ( #225 ) );
#162 = EDGE_LOOP( '', ( #226 ) );
#163 = AXIS2_PLACEMENT_3D( '', #227, #228, #229 );
#164 = SURFACE_SIDE_STYLE( '', ( #230 ) );
#165 = EDGE_LOOP( '', ( #231 ) );
#166 = EDGE_LOOP( '', ( #232 ) );
#167 = AXIS2_PLACEMENT_3D( '', #233, #234, #235 );
#168 = SURFACE_SIDE_STYLE( '', ( #236 ) );
#169 = EDGE_LOOP( '', ( #237 ) );
#170 = EDGE_LOOP( '', ( #238 ) );
#171 = AXIS2_PLACEMENT_3D( '', #239, #240, #241 );
#172 = SURFACE_SIDE_STYLE( '', ( #242 ) );
#173 = EDGE_LOOP( '', ( #243 ) );
#174 = EDGE_LOOP( '', ( #244 ) );
#175 = AXIS2_PLACEMENT_3D( '', #245, #246, #247 );
#176 = SURFACE_SIDE_STYLE( '', ( #248 ) );
#177 = EDGE_LOOP( '', ( #249 ) );
#178 = EDGE_LOOP( '', ( #250 ) );
#179 = AXIS2_PLACEMENT_3D( '', #251, #252, #253 );
#180 = SURFACE_SIDE_STYLE( '', ( #254 ) );
#181 = EDGE_LOOP( '', ( #255 ) );
#182 = EDGE_LOOP( '', ( #256 ) );
#183 = AXIS2_PLACEMENT_3D( '', #257, #258, #259 );
#184 = SURFACE_SIDE_STYLE( '', ( #260 ) );
#185 = EDGE_LOOP( '', ( #261 ) );
#186 = EDGE_LOOP( '', ( #262 ) );
#187 = AXIS2_PLACEMENT_3D( '', #263, #264, #265 );
#188 = SURFACE_SIDE_STYLE( '', ( #266 ) );
#189 = EDGE_LOOP( '', ( #267 ) );
#190 = EDGE_LOOP( '', ( #268 ) );
#191 = AXIS2_PLACEMENT_3D( '', #269, #270, #271 );
#192 = SURFACE_SIDE_STYLE( '', ( #272 ) );
#193 = EDGE_LOOP( '', ( #273 ) );
#194 = AXIS2_PLACEMENT_3D( '', #274, #275, #276 );
#195 = SURFACE_SIDE_STYLE( '', ( #277 ) );
#196 = EDGE_LOOP( '', ( #278 ) );
#197 = EDGE_LOOP( '', ( #279 ) );
#198 = AXIS2_PLACEMENT_3D( '', #280, #281, #282 );
#200 = SURFACE_STYLE_FILL_AREA( #283 );
#201 = ORIENTED_EDGE( '', *, *, #284, .F. );
#202 = ORIENTED_EDGE( '', *, *, #285, .F. );
#203 = CARTESIAN_POINT( '', ( 7.35646653897199E-032, 1.20144183737250E-015, 0.499783024432253 ) );
#204 = DIRECTION( '', ( 0.000000000000000, 0.000000000000000, 1.00000000000000 ) );
#205 = DIRECTION( '', ( 1.00000000000000, 0.000000000000000, 0.000000000000000 ) );
#206 = SURFACE_STYLE_FILL_AREA( #286 );
#207 = ORIENTED_EDGE( '', *, *, #287, .T. );
#208 = ORIENTED_EDGE( '', *, *, #288, .T. );
#209 = CARTESIAN_POINT( '', ( -2.88889491658086E-031, 1.92592994438724E-031, -0.000216975567748577 ) );
#210 = DIRECTION( '', ( -0.000000000000000, 0.000000000000000, -1.00000000000000 ) );
#211 = DIRECTION( '', ( 0.000000000000000, 1.00000000000000, 0.000000000000000 ) );
#212 = SURFACE_STYLE_FILL_AREA( #289 );
#213 = ORIENTED_EDGE( '', *, *, #287, .F. );
#214 = VERTEX_POINT( '', #290 );
#215 = CARTESIAN_POINT( '', ( -2.88889491658086E-031, 1.92592994438724E-031, 10.2578041249023 ) );
#216 = DIRECTION( '', ( 0.000000000000000, -0.000000000000000, -1.00000000000000 ) );
#217 = DIRECTION( '', ( 0.000000000000000, -1.00000000000000, 0.000000000000000 ) );
#218 = SURFACE_STYLE_FILL_AREA( #291 );
#219 = ORIENTED_EDGE( '', *, *, #292, .F. );
#220 = ORIENTED_EDGE( '', *, *, #293, .T. );
#221 = CARTESIAN_POINT( '', ( 4.46981319145168E-016, 7.30000000000000, 6.99978302443225 ) );
#222 = DIRECTION( '', ( 0.000000000000000, 0.000000000000000, 1.00000000000000 ) );
#223 = DIRECTION( '', ( 1.00000000000000, 0.000000000000000, 0.000000000000000 ) );
#224 = SURFACE_STYLE_FILL_AREA( #294 );
#225 = ORIENTED_EDGE( '', *, *, #295, .F. );
#226 = ORIENTED_EDGE( '', *, *, #296, .T. );
#227 = CARTESIAN_POINT( '', ( 7.35646653897199E-032, 1.20144183737250E-015, 7.79978302443181 ) );
#228 = DIRECTION( '', ( -0.000000000000000, 0.000000000000000, -1.00000000000000 ) );
#229 = DIRECTION( '', ( -1.00000000000000, 0.000000000000000, 0.000000000000000 ) );
#230 = SURFACE_STYLE_FILL_AREA( #297 );
#231 = ORIENTED_EDGE( '', *, *, #298, .F. );
#232 = ORIENTED_EDGE( '', *, *, #299, .T. );
#233 = CARTESIAN_POINT( '', ( 4.16437207343473E-016, 6.80116032459969, 12.5997830244323 ) );
#234 = DIRECTION( '', ( 0.000000000000000, 0.000000000000000, -1.00000000000000 ) );
#235 = DIRECTION( '', ( -1.00000000000000, 0.000000000000000, 0.000000000000000 ) );
#236 = SURFACE_STYLE_FILL_AREA( #300 );
#237 = ORIENTED_EDGE( '', *, *, #284, .T. );
#238 = ORIENTED_EDGE( '', *, *, #301, .T. );
#239 = CARTESIAN_POINT( '', ( 3.36766747301154E-016, 5.50000000000000, -0.000216975567747177 ) );
#240 = DIRECTION( '', ( 0.000000000000000, 0.000000000000000, 1.00000000000000 ) );
#241 = DIRECTION( '', ( 1.00000000000000, 0.000000000000000, 0.000000000000000 ) );
#242 = SURFACE_STYLE_FILL_AREA( #302 );
#243 = ORIENTED_EDGE( '', *, *, #285, .T. );
#244 = ORIENTED_EDGE( '', *, *, #293, .F. );
#245 = CARTESIAN_POINT( '', ( 7.35646653897199E-032, 1.20144183737250E-015, 9.81084112149533 ) );
#246 = DIRECTION( '', ( -0.000000000000000, -0.000000000000000, -1.00000000000000 ) );
#247 = DIRECTION( '', ( 1.00000000000000, 0.000000000000000, 0.000000000000000 ) );
#248 = SURFACE_STYLE_FILL_AREA( #303 );
#249 = ORIENTED_EDGE( '', *, *, #304, .F. );
#250 = ORIENTED_EDGE( '', *, *, #292, .T. );
#251 = CARTESIAN_POINT( '', ( 9.62964972193618E-032, 8.67361737988404E-016, 7.19978302443225 ) );
#252 = DIRECTION( '', ( 0.000000000000000, 0.000000000000000, 1.00000000000000 ) );
#253 = DIRECTION( '', ( 1.00000000000000, 0.000000000000000, 0.000000000000000 ) );
#254 = SURFACE_STYLE_FILL_AREA( #305 );
#255 = ORIENTED_EDGE( '', *, *, #306, .F. );
#256 = ORIENTED_EDGE( '', *, *, #301, .F. );
#257 = CARTESIAN_POINT( '', ( -2.88889491658086E-031, 1.92592994438724E-031, -0.000216975567748577 ) );
#258 = DIRECTION( '', ( -0.000000000000000, 0.000000000000000, -1.00000000000000 ) );
#259 = DIRECTION( '', ( -1.00000000000000, 0.000000000000000, 0.000000000000000 ) );
#260 = SURFACE_STYLE_FILL_AREA( #307 );
#261 = ORIENTED_EDGE( '', *, *, #299, .F. );
#262 = ORIENTED_EDGE( '', *, *, #295, .T. );
#263 = CARTESIAN_POINT( '', ( 9.62964972193618E-032, 8.67361737988404E-016, 12.3997830244323 ) );
#264 = DIRECTION( '', ( 0.000000000000000, 0.000000000000000, 1.00000000000000 ) );
#265 = DIRECTION( '', ( 1.00000000000000, 0.000000000000000, 0.000000000000000 ) );
#266 = SURFACE_STYLE_FILL_AREA( #308 );
#267 = ORIENTED_EDGE( '', *, *, #306, .T. );
#268 = ORIENTED_EDGE( '', *, *, #288, .F. );
#269 = CARTESIAN_POINT( '', ( -2.88889491658086E-031, 1.92592994438724E-031, -0.000216975567748577 ) );
#270 = DIRECTION( '', ( -0.000000000000000, 0.000000000000000, -1.00000000000000 ) );
#271 = DIRECTION( '', ( 0.000000000000000, 1.00000000000000, 0.000000000000000 ) );
#272 = SURFACE_STYLE_FILL_AREA( #309 );
#273 = ORIENTED_EDGE( '', *, *, #298, .T. );
#274 = CARTESIAN_POINT( '', ( -3.71761843391056E-031, -6.07153216591882E-015, 4.37121159586087 ) );
#275 = DIRECTION( '', ( 0.000000000000000, 0.000000000000000, 1.00000000000000 ) );
#276 = DIRECTION( '', ( 6.12303176911189E-017, 1.00000000000000, 0.000000000000000 ) );
#277 = SURFACE_STYLE_FILL_AREA( #310 );
#278 = ORIENTED_EDGE( '', *, *, #296, .F. );
#279 = ORIENTED_EDGE( '', *, *, #304, .T. );
#280 = CARTESIAN_POINT( '', ( 7.35646653897199E-032, 1.20144183737250E-015, 9.81084112149533 ) );
#281 = DIRECTION( '', ( -0.000000000000000, -0.000000000000000, -1.00000000000000 ) );
#282 = DIRECTION( '', ( 1.00000000000000, 0.000000000000000, 0.000000000000000 ) );
#283 = FILL_AREA_STYLE( '', ( #311 ) );
#284 = EDGE_CURVE( '', #312, #312, #313, .F. );
#285 = EDGE_CURVE( '', #314, #314, #315, .T. );
#286 = FILL_AREA_STYLE( '', ( #316 ) );
#287 = EDGE_CURVE( '', #317, #317, #318, .T. );
#288 = EDGE_CURVE( '', #319, #319, #320, .T. );
#289 = FILL_AREA_STYLE( '', ( #321 ) );
#290 = CARTESIAN_POINT( '', ( -2.88889491658086E-031, 1.92592994438724E-031, 11.4997830244322 ) );
#291 = FILL_AREA_STYLE( '', ( #322 ) );
#292 = EDGE_CURVE( '', #323, #323, #324, .T. );
#293 = EDGE_CURVE( '', #325, #325, #326, .T. );
#294 = FILL_AREA_STYLE( '', ( #327 ) );
#295 = EDGE_CURVE( '', #328, #328, #329, .T. );
#296 = EDGE_CURVE( '', #330, #330, #331, .T. );
#297 = FILL_AREA_STYLE( '', ( #332 ) );
#298 = EDGE_CURVE( '', #333, #333, #334, .T. );
#299 = EDGE_CURVE( '', #335, #335, #336, .T. );
#300 = FILL_AREA_STYLE( '', ( #337 ) );
#301 = EDGE_CURVE( '', #338, #338, #339, .T. );
#302 = FILL_AREA_STYLE( '', ( #340 ) );
#303 = FILL_AREA_STYLE( '', ( #341 ) );
#304 = EDGE_CURVE( '', #342, #342, #343, .T. );
#305 = FILL_AREA_STYLE( '', ( #344 ) );
#306 = EDGE_CURVE( '', #345, #345, #346, .F. );
#307 = FILL_AREA_STYLE( '', ( #347 ) );
#308 = FILL_AREA_STYLE( '', ( #348 ) );
#309 = FILL_AREA_STYLE( '', ( #349 ) );
#310 = FILL_AREA_STYLE( '', ( #350 ) );
#311 = FILL_AREA_STYLE_COLOUR( '', #351 );
#312 = VERTEX_POINT( '', #352 );
#313 = CIRCLE( '', #353, 5.00000000000000 );
#314 = VERTEX_POINT( '', #354 );
#315 = CIRCLE( '', #355, 5.50000000000000 );
#316 = FILL_AREA_STYLE_COLOUR( '', #356 );
#317 = VERTEX_POINT( '', #357 );
#318 = CIRCLE( '', #358, 2.06700000000000 );
#319 = VERTEX_POINT( '', #359 );
#320 = CIRCLE( '', #360, 2.06700000000000 );
#321 = FILL_AREA_STYLE_COLOUR( '', #361 );
#322 = FILL_AREA_STYLE_COLOUR( '', #362 );
#323 = VERTEX_POINT( '', #363 );
#324 = CIRCLE( '', #364, 7.30000000000000 );
#325 = VERTEX_POINT( '', #365 );
#326 = CIRCLE( '', #366, 5.50000000000000 );
#327 = FILL_AREA_STYLE_COLOUR( '', #367 );
#328 = VERTEX_POINT( '', #368 );
#329 = CIRCLE( '', #369, 7.00000000000000 );
#330 = VERTEX_POINT( '', #370 );
#331 = CIRCLE( '', #371, 7.50000000000000 );
#332 = FILL_AREA_STYLE_COLOUR( '', #372 );
#333 = VERTEX_POINT( '', #373 );
#334 = CIRCLE( '', #374, 5.00000000000000 );
#335 = VERTEX_POINT( '', #375 );
#336 = CIRCLE( '', #376, 6.80116032459969 );
#337 = FILL_AREA_STYLE_COLOUR( '', #377 );
#338 = VERTEX_POINT( '', #378 );
#339 = CIRCLE( '', #379, 2.56700000000000 );
#340 = FILL_AREA_STYLE_COLOUR( '', #380 );
#341 = FILL_AREA_STYLE_COLOUR( '', #381 );
#342 = VERTEX_POINT( '', #382 );
#343 = CIRCLE( '', #383, 7.50000000000000 );
#344 = FILL_AREA_STYLE_COLOUR( '', #384 );
#345 = VERTEX_POINT( '', #385 );
#346 = CIRCLE( '', #386, 2.06700000000000 );
#347 = FILL_AREA_STYLE_COLOUR( '', #387 );
#348 = FILL_AREA_STYLE_COLOUR( '', #388 );
#349 = FILL_AREA_STYLE_COLOUR( '', #389 );
#350 = FILL_AREA_STYLE_COLOUR( '', #390 );
#351 = COLOUR_RGB( '', 0.200000002980232, 0.200000002980232, 0.200000002980232 );
#352 = CARTESIAN_POINT( '', ( 5.00000000000000, 1.20144183737250E-015, -0.000216975567747177 ) );
#353 = AXIS2_PLACEMENT_3D( '', #391, #392, #393 );
#354 = CARTESIAN_POINT( '', ( 5.50000000000000, 1.20144183737250E-015, 0.499783024432253 ) );
#355 = AXIS2_PLACEMENT_3D( '', #394, #395, #396 );
#356 = COLOUR_RGB( '', 0.666666686534882, 0.400000005960464, 0.133333340287209 );
#357 = CARTESIAN_POINT( '', ( -2.88889491658086E-031, -2.06700000000000, 10.2578041249023 ) );
#358 = AXIS2_PLACEMENT_3D( '', #397, #398, #399 );
#359 = CARTESIAN_POINT( '', ( -2.88889491658086E-031, 2.06700000000000, 8.99978302443225 ) );
#360 = AXIS2_PLACEMENT_3D( '', #400, #401, #402 );
#361 = COLOUR_RGB( '', 0.666666686534882, 0.400000005960464, 0.133333340287209 );
#362 = COLOUR_RGB( '', 0.200000002980232, 0.200000002980232, 0.200000002980232 );
#363 = CARTESIAN_POINT( '', ( 7.30000000000000, 1.20144183737250E-015, 6.99978302443225 ) );
#364 = AXIS2_PLACEMENT_3D( '', #403, #404, #405 );
#365 = CARTESIAN_POINT( '', ( 5.50000000000000, 1.20144183737250E-015, 6.99978302443225 ) );
#366 = AXIS2_PLACEMENT_3D( '', #406, #407, #408 );
#367 = COLOUR_RGB( '', 0.200000002980232, 0.200000002980232, 0.200000002980232 );
#368 = CARTESIAN_POINT( '', ( 7.00000000000000, 1.20144183737250E-015, 12.4212954275221 ) );
#369 = AXIS2_PLACEMENT_3D( '', #409, #410, #411 );
#370 = CARTESIAN_POINT( '', ( 7.50000000000000, 1.20144183737250E-015, 7.79978302443181 ) );
#371 = AXIS2_PLACEMENT_3D( '', #412, #413, #414 );
#372 = COLOUR_RGB( '', 0.200000002980232, 0.200000002980232, 0.200000002980232 );
#373 = CARTESIAN_POINT( '', ( 5.00000000000000, 1.20144183737250E-015, 12.5997830244323 ) );
#374 = AXIS2_PLACEMENT_3D( '', #415, #416, #417 );
#375 = CARTESIAN_POINT( '', ( 6.80116032459969, 1.20144183737250E-015, 12.5997830244323 ) );
#376 = AXIS2_PLACEMENT_3D( '', #418, #419, #420 );
#377 = COLOUR_RGB( '', 0.752941191196442, 0.752941191196442, 0.752941191196442 );
#378 = CARTESIAN_POINT( '', ( 2.56700000000000, 1.92592994438724E-031, -0.000216975567748577 ) );
#379 = AXIS2_PLACEMENT_3D( '', #421, #422, #423 );
#380 = COLOUR_RGB( '', 0.200000002980232, 0.200000002980232, 0.200000002980232 );
#381 = COLOUR_RGB( '', 0.200000002980232, 0.200000002980232, 0.200000002980232 );
#382 = CARTESIAN_POINT( '', ( 7.50000000000000, 1.20144183737250E-015, 7.19978302443225 ) );
#383 = AXIS2_PLACEMENT_3D( '', #424, #425, #426 );
#384 = COLOUR_RGB( '', 0.666666686534882, 0.400000005960464, 0.133333340287209 );
#385 = CARTESIAN_POINT( '', ( 2.06700000000000, 1.92592994438724E-031, 0.499783024432251 ) );
#386 = AXIS2_PLACEMENT_3D( '', #427, #428, #429 );
#387 = COLOUR_RGB( '', 0.200000002980232, 0.200000002980232, 0.200000002980232 );
#388 = COLOUR_RGB( '', 0.752941191196442, 0.752941191196442, 0.752941191196442 );
#389 = COLOUR_RGB( '', 0.200000002980232, 0.200000002980232, 0.200000002980232 );
#390 = COLOUR_RGB( '', 0.200000002980232, 0.200000002980232, 0.200000002980232 );
#391 = CARTESIAN_POINT( '', ( 7.35646653897199E-032, 1.20144183737250E-015, -0.000216975567747177 ) );
#392 = DIRECTION( '', ( 0.000000000000000, 0.000000000000000, 1.00000000000000 ) );
#393 = DIRECTION( '', ( 1.00000000000000, 0.000000000000000, 0.000000000000000 ) );
#394 = CARTESIAN_POINT( '', ( 7.35646653897199E-032, 1.20144183737250E-015, 0.499783024432253 ) );
#395 = DIRECTION( '', ( 0.000000000000000, 0.000000000000000, 1.00000000000000 ) );
#396 = DIRECTION( '', ( 1.00000000000000, 0.000000000000000, 0.000000000000000 ) );
#397 = CARTESIAN_POINT( '', ( -2.88889491658086E-031, 1.92592994438724E-031, 10.2578041249023 ) );
#398 = DIRECTION( '', ( 0.000000000000000, 0.000000000000000, 1.00000000000000 ) );
#399 = DIRECTION( '', ( 0.000000000000000, -1.00000000000000, 0.000000000000000 ) );
#400 = CARTESIAN_POINT( '', ( -2.88889491658086E-031, 1.92592994438724E-031, 8.99978302443225 ) );
#401 = DIRECTION( '', ( 0.000000000000000, 0.000000000000000, -1.00000000000000 ) );
#402 = DIRECTION( '', ( 0.000000000000000, 1.00000000000000, 0.000000000000000 ) );
#403 = CARTESIAN_POINT( '', ( 7.35646653897199E-032, 1.20144183737250E-015, 6.99978302443225 ) );
#404 = DIRECTION( '', ( 0.000000000000000, 0.000000000000000, 1.00000000000000 ) );
#405 = DIRECTION( '', ( 1.00000000000000, 0.000000000000000, 0.000000000000000 ) );
#406 = CARTESIAN_POINT( '', ( 7.35646653897199E-032, 1.20144183737250E-015, 6.99978302443225 ) );
#407 = DIRECTION( '', ( 0.000000000000000, 0.000000000000000, 1.00000000000000 ) );
#408 = DIRECTION( '', ( 1.00000000000000, 0.000000000000000, 0.000000000000000 ) );
#409 = CARTESIAN_POINT( '', ( 7.35646653897199E-032, 1.20144183737250E-015, 12.4212954275221 ) );
#410 = DIRECTION( '', ( 0.000000000000000, 0.000000000000000, 1.00000000000000 ) );
#411 = DIRECTION( '', ( 1.00000000000000, 0.000000000000000, 0.000000000000000 ) );
#412 = CARTESIAN_POINT( '', ( 7.35646653897199E-032, 1.20144183737250E-015, 7.79978302443181 ) );
#413 = DIRECTION( '', ( 0.000000000000000, 0.000000000000000, 1.00000000000000 ) );
#414 = DIRECTION( '', ( 1.00000000000000, 0.000000000000000, 0.000000000000000 ) );
#415 = CARTESIAN_POINT( '', ( 7.35646653897199E-032, 1.20144183737250E-015, 12.5997830244323 ) );
#416 = DIRECTION( '', ( 0.000000000000000, 0.000000000000000, 1.00000000000000 ) );
#417 = DIRECTION( '', ( 1.00000000000000, 0.000000000000000, 0.000000000000000 ) );
#418 = CARTESIAN_POINT( '', ( 7.35646653897199E-032, 1.20144183737250E-015, 12.5997830244323 ) );
#419 = DIRECTION( '', ( 0.000000000000000, 0.000000000000000, 1.00000000000000 ) );
#420 = DIRECTION( '', ( 1.00000000000000, 0.000000000000000, 0.000000000000000 ) );
#421 = CARTESIAN_POINT( '', ( -2.88889491658086E-031, 1.92592994438724E-031, -0.000216975567748577 ) );
#422 = DIRECTION( '', ( 0.000000000000000, 0.000000000000000, 1.00000000000000 ) );
#423 = DIRECTION( '', ( 1.00000000000000, 0.000000000000000, 0.000000000000000 ) );
#424 = CARTESIAN_POINT( '', ( 7.35646653897199E-032, 1.20144183737250E-015, 7.19978302443225 ) );
#425 = DIRECTION( '', ( 0.000000000000000, 0.000000000000000, 1.00000000000000 ) );
#426 = DIRECTION( '', ( 1.00000000000000, 0.000000000000000, 0.000000000000000 ) );
#427 = CARTESIAN_POINT( '', ( -2.88889491658086E-031, 1.92592994438724E-031, 0.499783024432251 ) );
#428 = DIRECTION( '', ( 0.000000000000000, 0.000000000000000, 1.00000000000000 ) );
#429 = DIRECTION( '', ( 1.00000000000000, 0.000000000000000, 0.000000000000000 ) );
ENDSEC;
END-ISO-10303-21;
