ISO-10303-21;
HEADER;
/* Generated by software containing ST-Developer
 * from STEP Tools, Inc. (www.steptools.com) 
 */
/* OPTION: strings as raw bytes, not using required /X/ escapes */

FILE_DESCRIPTION(
/* description */ ('File step'),
/* implementation_level */ '2;1');

FILE_NAME(
/* name */ '6332020',
/* time_stamp */ '2022-01-24T15:17:59+01:00',
/* author */ ('Zorzan D.'),
/* organization */ ('Gamm Srl.'),
/* preprocessor_version */ 'ST-DEVELOPER v16.7',
/* originating_system */ 'Solid Edge',
/* authorisation */ 'Unknown');

FILE_SCHEMA (('CONFIG_CONTROL_DESIGN'));
ENDSEC;

DATA;
#10=PROPERTY_DEFINITION_REPRESENTATION(#14,#12);
#11=PROPERTY_DEFINITION_REPRESENTATION(#15,#13);
#12=REPRESENTATION('',(#16),#450);
#13=REPRESENTATION('',(#17),#450);
#14=PROPERTY_DEFINITION('pmi validation property','',#455);
#15=PROPERTY_DEFINITION('pmi validation property','',#455);
#16=VALUE_REPRESENTATION_ITEM('number of annotations',COUNT_MEASURE(0.));
#17=VALUE_REPRESENTATION_ITEM('number of views',COUNT_MEASURE(0.));
#18=SHAPE_REPRESENTATION_RELATIONSHIP('','',#292,#19);
#19=ADVANCED_BREP_SHAPE_REPRESENTATION('',(#290),#450);
#20=TOROIDAL_SURFACE('',#304,9.85278472922095,0.2);
#21=TOROIDAL_SURFACE('',#310,10.8,0.2);
#22=TOROIDAL_SURFACE('',#314,7.5745256839889,0.199575535560758);
#23=TOROIDAL_SURFACE('',#316,7.30004995759797,0.2);
#24=PLANE('',#302);
#25=PLANE('',#312);
#26=PLANE('',#319);
#27=SPHERICAL_SURFACE('',#300,25.);
#28=B_SPLINE_CURVE_WITH_KNOTS('',3,(#391,#392,#393,#394,#395,#396,#397,
#398,#399,#400,#401,#402,#403),.UNSPECIFIED.,.T.,.F.,(1,1,1,1,1,1,1,1,1,
1,1,1,1,1,1,1,1),(-0.00258370022279255,-0.00129185011139628,-0.000645925055698139,
2.59929414565204E-19,0.00129185011139628,0.00258370022279255,0.00322962527849069,
0.00387555033418883,0.0051674004455851,0.00645925055698138,0.00775110066837766,
0.00904295077977393,0.00968887583547207,0.0103348008911702,0.0116266510025665,
0.0129185011139628,0.0135644261696609),.UNSPECIFIED.);
#29=B_SPLINE_CURVE_WITH_KNOTS('',3,(#436,#437,#438,#439,#440,#441,#442,
#443,#444,#445,#446),.UNSPECIFIED.,.T.,.F.,(1,1,1,1,1,1,1,1,1,1,1,1,1,1,
1),(-0.00381279807544926,-0.0025418653836328,-0.00127093269181634,1.23257718412355E-16,
0.00127093269181658,0.00254186538363304,0.0038127980754495,0.00508373076726596,
0.00635466345908242,0.00762559615089888,0.00889652884271534,0.0101674615345318,
0.0114383942263483,0.0127093269181647,0.0139802596099812),.UNSPECIFIED.);
#30=CYLINDRICAL_SURFACE('',#299,3.);
#31=CYLINDRICAL_SURFACE('',#308,11.);
#32=CYLINDRICAL_SURFACE('',#321,1.621);
#33=VERTEX_LOOP('',#82);
#34=ORIENTED_EDGE('',*,*,#64,.F.);
#35=ORIENTED_EDGE('',*,*,#65,.F.);
#36=ORIENTED_EDGE('',*,*,#66,.F.);
#37=ORIENTED_EDGE('',*,*,#67,.T.);
#38=ORIENTED_EDGE('',*,*,#64,.T.);
#39=ORIENTED_EDGE('',*,*,#66,.T.);
#40=ORIENTED_EDGE('',*,*,#68,.T.);
#41=ORIENTED_EDGE('',*,*,#68,.F.);
#42=ORIENTED_EDGE('',*,*,#69,.T.);
#43=ORIENTED_EDGE('',*,*,#69,.F.);
#44=ORIENTED_EDGE('',*,*,#70,.T.);
#45=ORIENTED_EDGE('',*,*,#70,.F.);
#46=ORIENTED_EDGE('',*,*,#71,.T.);
#47=ORIENTED_EDGE('',*,*,#71,.F.);
#48=ORIENTED_EDGE('',*,*,#72,.T.);
#49=ORIENTED_EDGE('',*,*,#72,.F.);
#50=ORIENTED_EDGE('',*,*,#73,.T.);
#51=ORIENTED_EDGE('',*,*,#73,.F.);
#52=ORIENTED_EDGE('',*,*,#74,.T.);
#53=ORIENTED_EDGE('',*,*,#74,.F.);
#54=ORIENTED_EDGE('',*,*,#75,.T.);
#55=ORIENTED_EDGE('',*,*,#76,.F.);
#56=ORIENTED_EDGE('',*,*,#77,.T.);
#57=ORIENTED_EDGE('',*,*,#77,.F.);
#58=ORIENTED_EDGE('',*,*,#65,.T.);
#59=ORIENTED_EDGE('',*,*,#76,.T.);
#60=ORIENTED_EDGE('',*,*,#75,.F.);
#61=ORIENTED_EDGE('',*,*,#78,.F.);
#62=ORIENTED_EDGE('',*,*,#78,.T.);
#63=ORIENTED_EDGE('',*,*,#67,.F.);
#64=EDGE_CURVE('',#79,#79,#95,.F.);
#65=EDGE_CURVE('',#80,#80,#96,.T.);
#66=EDGE_CURVE('',#81,#81,#97,.T.);
#67=EDGE_CURVE('',#83,#83,#28,.T.);
#68=EDGE_CURVE('',#84,#84,#98,.T.);
#69=EDGE_CURVE('',#85,#85,#99,.T.);
#70=EDGE_CURVE('',#86,#86,#100,.T.);
#71=EDGE_CURVE('',#87,#87,#101,.T.);
#72=EDGE_CURVE('',#88,#88,#102,.T.);
#73=EDGE_CURVE('',#89,#89,#103,.T.);
#74=EDGE_CURVE('',#90,#90,#104,.T.);
#75=EDGE_CURVE('',#91,#91,#105,.T.);
#76=EDGE_CURVE('',#92,#92,#106,.T.);
#77=EDGE_CURVE('',#93,#93,#107,.T.);
#78=EDGE_CURVE('',#94,#94,#29,.T.);
#79=VERTEX_POINT('',#383);
#80=VERTEX_POINT('',#385);
#81=VERTEX_POINT('',#388);
#82=VERTEX_POINT('',#389);
#83=VERTEX_POINT('',#404);
#84=VERTEX_POINT('',#407);
#85=VERTEX_POINT('',#410);
#86=VERTEX_POINT('',#413);
#87=VERTEX_POINT('',#416);
#88=VERTEX_POINT('',#419);
#89=VERTEX_POINT('',#422);
#90=VERTEX_POINT('',#425);
#91=VERTEX_POINT('',#428);
#92=VERTEX_POINT('',#431);
#93=VERTEX_POINT('',#433);
#94=VERTEX_POINT('',#447);
#95=CIRCLE('',#295,3.);
#96=CIRCLE('',#296,3.5);
#97=CIRCLE('',#298,3.);
#98=CIRCLE('',#301,8.24863625092051);
#99=CIRCLE('',#303,9.85278472922095);
#100=CIRCLE('',#305,10.05);
#101=CIRCLE('',#307,11.);
#102=CIRCLE('',#309,11.);
#103=CIRCLE('',#311,10.8);
#104=CIRCLE('',#313,7.5745256839889);
#105=CIRCLE('',#315,7.375);
#106=CIRCLE('',#317,7.5);
#107=CIRCLE('',#318,7.30004995759797);
#108=EDGE_LOOP('',(#34));
#109=EDGE_LOOP('',(#35));
#110=EDGE_LOOP('',(#36));
#111=EDGE_LOOP('',(#37));
#112=EDGE_LOOP('',(#38));
#113=EDGE_LOOP('',(#39));
#114=EDGE_LOOP('',(#40));
#115=EDGE_LOOP('',(#41));
#116=EDGE_LOOP('',(#42));
#117=EDGE_LOOP('',(#43));
#118=EDGE_LOOP('',(#44));
#119=EDGE_LOOP('',(#45));
#120=EDGE_LOOP('',(#46));
#121=EDGE_LOOP('',(#47));
#122=EDGE_LOOP('',(#48));
#123=EDGE_LOOP('',(#49));
#124=EDGE_LOOP('',(#50));
#125=EDGE_LOOP('',(#51));
#126=EDGE_LOOP('',(#52));
#127=EDGE_LOOP('',(#53));
#128=EDGE_LOOP('',(#54));
#129=EDGE_LOOP('',(#55));
#130=EDGE_LOOP('',(#56));
#131=EDGE_LOOP('',(#57));
#132=EDGE_LOOP('',(#58));
#133=EDGE_LOOP('',(#59));
#134=EDGE_LOOP('',(#60));
#135=EDGE_LOOP('',(#61));
#136=EDGE_LOOP('',(#62));
#137=EDGE_LOOP('',(#63));
#138=FACE_BOUND('',#108,.T.);
#139=FACE_BOUND('',#109,.T.);
#140=FACE_BOUND('',#110,.T.);
#141=FACE_BOUND('',#33,.T.);
#142=FACE_BOUND('',#111,.T.);
#143=FACE_BOUND('',#112,.T.);
#144=FACE_BOUND('',#113,.T.);
#145=FACE_BOUND('',#114,.T.);
#146=FACE_BOUND('',#115,.T.);
#147=FACE_BOUND('',#116,.T.);
#148=FACE_BOUND('',#117,.T.);
#149=FACE_BOUND('',#118,.T.);
#150=FACE_BOUND('',#119,.T.);
#151=FACE_BOUND('',#120,.T.);
#152=FACE_BOUND('',#121,.T.);
#153=FACE_BOUND('',#122,.T.);
#154=FACE_BOUND('',#123,.T.);
#155=FACE_BOUND('',#124,.T.);
#156=FACE_BOUND('',#125,.T.);
#157=FACE_BOUND('',#126,.T.);
#158=FACE_BOUND('',#127,.T.);
#159=FACE_BOUND('',#128,.T.);
#160=FACE_BOUND('',#129,.T.);
#161=FACE_BOUND('',#130,.T.);
#162=FACE_BOUND('',#131,.T.);
#163=FACE_BOUND('',#132,.T.);
#164=FACE_BOUND('',#133,.T.);
#165=FACE_BOUND('',#134,.T.);
#166=FACE_BOUND('',#135,.T.);
#167=FACE_BOUND('',#136,.T.);
#168=FACE_BOUND('',#137,.T.);
#169=CONICAL_SURFACE('',#294,3.5,0.785398163397448);
#170=CONICAL_SURFACE('',#297,3.,1.39626340159546);
#171=CONICAL_SURFACE('',#306,11.,0.167069314570506);
#172=CONICAL_SURFACE('',#320,7.5,0.0223516616638408);
#173=STYLED_ITEM('',(#187),#274);
#174=STYLED_ITEM('',(#188),#275);
#175=STYLED_ITEM('',(#189),#276);
#176=STYLED_ITEM('',(#190),#277);
#177=STYLED_ITEM('',(#191),#278);
#178=STYLED_ITEM('',(#192),#279);
#179=STYLED_ITEM('',(#193),#280);
#180=STYLED_ITEM('',(#194),#281);
#181=STYLED_ITEM('',(#195),#282);
#182=STYLED_ITEM('',(#196),#283);
#183=STYLED_ITEM('',(#197),#284);
#184=STYLED_ITEM('',(#198),#285);
#185=STYLED_ITEM('',(#199),#287);
#186=STYLED_ITEM('',(#200),#288);
#187=PRESENTATION_STYLE_ASSIGNMENT((#201));
#188=PRESENTATION_STYLE_ASSIGNMENT((#202));
#189=PRESENTATION_STYLE_ASSIGNMENT((#203));
#190=PRESENTATION_STYLE_ASSIGNMENT((#204));
#191=PRESENTATION_STYLE_ASSIGNMENT((#205));
#192=PRESENTATION_STYLE_ASSIGNMENT((#206));
#193=PRESENTATION_STYLE_ASSIGNMENT((#207));
#194=PRESENTATION_STYLE_ASSIGNMENT((#208));
#195=PRESENTATION_STYLE_ASSIGNMENT((#209));
#196=PRESENTATION_STYLE_ASSIGNMENT((#210));
#197=PRESENTATION_STYLE_ASSIGNMENT((#211));
#198=PRESENTATION_STYLE_ASSIGNMENT((#212));
#199=PRESENTATION_STYLE_ASSIGNMENT((#213));
#200=PRESENTATION_STYLE_ASSIGNMENT((#214));
#201=SURFACE_STYLE_USAGE(.BOTH.,#215);
#202=SURFACE_STYLE_USAGE(.BOTH.,#216);
#203=SURFACE_STYLE_USAGE(.BOTH.,#217);
#204=SURFACE_STYLE_USAGE(.BOTH.,#218);
#205=SURFACE_STYLE_USAGE(.BOTH.,#219);
#206=SURFACE_STYLE_USAGE(.BOTH.,#220);
#207=SURFACE_STYLE_USAGE(.BOTH.,#221);
#208=SURFACE_STYLE_USAGE(.BOTH.,#222);
#209=SURFACE_STYLE_USAGE(.BOTH.,#223);
#210=SURFACE_STYLE_USAGE(.BOTH.,#224);
#211=SURFACE_STYLE_USAGE(.BOTH.,#225);
#212=SURFACE_STYLE_USAGE(.BOTH.,#226);
#213=SURFACE_STYLE_USAGE(.BOTH.,#227);
#214=SURFACE_STYLE_USAGE(.BOTH.,#228);
#215=SURFACE_SIDE_STYLE('',(#229));
#216=SURFACE_SIDE_STYLE('',(#230));
#217=SURFACE_SIDE_STYLE('',(#231));
#218=SURFACE_SIDE_STYLE('',(#232));
#219=SURFACE_SIDE_STYLE('',(#233));
#220=SURFACE_SIDE_STYLE('',(#234));
#221=SURFACE_SIDE_STYLE('',(#235));
#222=SURFACE_SIDE_STYLE('',(#236));
#223=SURFACE_SIDE_STYLE('',(#237));
#224=SURFACE_SIDE_STYLE('',(#238));
#225=SURFACE_SIDE_STYLE('',(#239));
#226=SURFACE_SIDE_STYLE('',(#240));
#227=SURFACE_SIDE_STYLE('',(#241));
#228=SURFACE_SIDE_STYLE('',(#242));
#229=SURFACE_STYLE_FILL_AREA(#243);
#230=SURFACE_STYLE_FILL_AREA(#244);
#231=SURFACE_STYLE_FILL_AREA(#245);
#232=SURFACE_STYLE_FILL_AREA(#246);
#233=SURFACE_STYLE_FILL_AREA(#247);
#234=SURFACE_STYLE_FILL_AREA(#248);
#235=SURFACE_STYLE_FILL_AREA(#249);
#236=SURFACE_STYLE_FILL_AREA(#250);
#237=SURFACE_STYLE_FILL_AREA(#251);
#238=SURFACE_STYLE_FILL_AREA(#252);
#239=SURFACE_STYLE_FILL_AREA(#253);
#240=SURFACE_STYLE_FILL_AREA(#254);
#241=SURFACE_STYLE_FILL_AREA(#255);
#242=SURFACE_STYLE_FILL_AREA(#256);
#243=FILL_AREA_STYLE('',(#257));
#244=FILL_AREA_STYLE('',(#258));
#245=FILL_AREA_STYLE('',(#259));
#246=FILL_AREA_STYLE('',(#260));
#247=FILL_AREA_STYLE('',(#261));
#248=FILL_AREA_STYLE('',(#262));
#249=FILL_AREA_STYLE('',(#263));
#250=FILL_AREA_STYLE('',(#264));
#251=FILL_AREA_STYLE('',(#265));
#252=FILL_AREA_STYLE('',(#266));
#253=FILL_AREA_STYLE('',(#267));
#254=FILL_AREA_STYLE('',(#268));
#255=FILL_AREA_STYLE('',(#269));
#256=FILL_AREA_STYLE('',(#270));
#257=FILL_AREA_STYLE_COLOUR('',#271);
#258=FILL_AREA_STYLE_COLOUR('',#271);
#259=FILL_AREA_STYLE_COLOUR('',#271);
#260=FILL_AREA_STYLE_COLOUR('',#272);
#261=FILL_AREA_STYLE_COLOUR('',#272);
#262=FILL_AREA_STYLE_COLOUR('',#272);
#263=FILL_AREA_STYLE_COLOUR('',#272);
#264=FILL_AREA_STYLE_COLOUR('',#272);
#265=FILL_AREA_STYLE_COLOUR('',#272);
#266=FILL_AREA_STYLE_COLOUR('',#272);
#267=FILL_AREA_STYLE_COLOUR('',#272);
#268=FILL_AREA_STYLE_COLOUR('',#272);
#269=FILL_AREA_STYLE_COLOUR('',#272);
#270=FILL_AREA_STYLE_COLOUR('',#273);
#271=COLOUR_RGB('',0.71399998664856,0.428400009870529,0.181400001049042);
#272=COLOUR_RGB('',0.200000002980232,0.200000002980232,0.200000002980232);
#273=COLOUR_RGB('',0.752941191196442,0.752941191196442,0.752941191196442);
#274=ADVANCED_FACE('',(#138,#139),#169,.F.);
#275=ADVANCED_FACE('',(#140,#141),#170,.F.);
#276=ADVANCED_FACE('',(#142,#143,#144),#30,.F.);
#277=ADVANCED_FACE('',(#145),#27,.T.);
#278=ADVANCED_FACE('',(#146,#147),#24,.F.);
#279=ADVANCED_FACE('',(#148,#149),#20,.T.);
#280=ADVANCED_FACE('',(#150,#151),#171,.T.);
#281=ADVANCED_FACE('',(#152,#153),#31,.T.);
#282=ADVANCED_FACE('',(#154,#155),#21,.T.);
#283=ADVANCED_FACE('',(#156,#157),#25,.F.);
#284=ADVANCED_FACE('',(#158,#159),#22,.F.);
#285=ADVANCED_FACE('',(#160,#161),#23,.T.);
#286=ADVANCED_FACE('',(#162,#163),#26,.F.);
#287=ADVANCED_FACE('',(#164,#165,#166),#172,.T.);
#288=ADVANCED_FACE('',(#167,#168),#32,.F.);
#289=CLOSED_SHELL('',(#274,#275,#276,#277,#278,#279,#280,#281,#282,#283,
#284,#285,#286,#287,#288));
#290=MANIFOLD_SOLID_BREP('6332020',#289);
#291=SHAPE_DEFINITION_REPRESENTATION(#455,#292);
#292=SHAPE_REPRESENTATION('Parte14',(#293),#450);
#293=AXIS2_PLACEMENT_3D('',#380,#322,#323);
#294=AXIS2_PLACEMENT_3D('',#381,#324,#325);
#295=AXIS2_PLACEMENT_3D('',#382,#326,#327);
#296=AXIS2_PLACEMENT_3D('',#384,#328,#329);
#297=AXIS2_PLACEMENT_3D('',#386,#330,#331);
#298=AXIS2_PLACEMENT_3D('',#387,#332,#333);
#299=AXIS2_PLACEMENT_3D('',#390,#334,#335);
#300=AXIS2_PLACEMENT_3D('',#405,#336,#337);
#301=AXIS2_PLACEMENT_3D('',#406,#338,#339);
#302=AXIS2_PLACEMENT_3D('',#408,#340,#341);
#303=AXIS2_PLACEMENT_3D('',#409,#342,#343);
#304=AXIS2_PLACEMENT_3D('',#411,#344,#345);
#305=AXIS2_PLACEMENT_3D('',#412,#346,#347);
#306=AXIS2_PLACEMENT_3D('',#414,#348,#349);
#307=AXIS2_PLACEMENT_3D('',#415,#350,#351);
#308=AXIS2_PLACEMENT_3D('',#417,#352,#353);
#309=AXIS2_PLACEMENT_3D('',#418,#354,#355);
#310=AXIS2_PLACEMENT_3D('',#420,#356,#357);
#311=AXIS2_PLACEMENT_3D('',#421,#358,#359);
#312=AXIS2_PLACEMENT_3D('',#423,#360,#361);
#313=AXIS2_PLACEMENT_3D('',#424,#362,#363);
#314=AXIS2_PLACEMENT_3D('',#426,#364,#365);
#315=AXIS2_PLACEMENT_3D('',#427,#366,#367);
#316=AXIS2_PLACEMENT_3D('',#429,#368,#369);
#317=AXIS2_PLACEMENT_3D('',#430,#370,#371);
#318=AXIS2_PLACEMENT_3D('',#432,#372,#373);
#319=AXIS2_PLACEMENT_3D('',#434,#374,#375);
#320=AXIS2_PLACEMENT_3D('',#435,#376,#377);
#321=AXIS2_PLACEMENT_3D('',#448,#378,#379);
#322=DIRECTION('',(0.,0.,1.));
#323=DIRECTION('',(1.,0.,0.));
#324=DIRECTION('',(5.55111512312578E-17,1.23259516440783E-32,-1.));
#325=DIRECTION('',(2.22044604925031E-16,-1.,5.55111512312579E-17));
#326=DIRECTION('',(-5.55111512312578E-17,-1.23259516440783E-32,1.));
#327=DIRECTION('',(-2.22044604925031E-16,1.,-5.55111512312579E-17));
#328=DIRECTION('',(-5.55111512312578E-17,-1.23259516440783E-32,1.));
#329=DIRECTION('',(-2.22044604925031E-16,1.,-5.55111512312579E-17));
#330=DIRECTION('',(5.55111512312578E-17,1.23259516440783E-32,-1.));
#331=DIRECTION('',(1.,0.,0.));
#332=DIRECTION('',(-5.55111512312578E-17,-1.23259516440783E-32,1.));
#333=DIRECTION('',(1.,0.,0.));
#334=DIRECTION('',(-5.55111512312578E-17,-1.23259516440783E-32,1.));
#335=DIRECTION('',(-1.,0.,0.));
#336=DIRECTION('',(0.,0.,1.));
#337=DIRECTION('',(6.12303176911189E-17,1.,0.));
#338=DIRECTION('',(0.,0.,1.));
#339=DIRECTION('',(1.,0.,0.));
#340=DIRECTION('',(0.,0.,-1.));
#341=DIRECTION('',(-1.,0.,0.));
#342=DIRECTION('',(0.,0.,1.));
#343=DIRECTION('',(1.,0.,0.));
#344=DIRECTION('',(0.,0.,1.));
#345=DIRECTION('',(1.,0.,0.));
#346=DIRECTION('',(0.,0.,1.));
#347=DIRECTION('',(1.,0.,0.));
#348=DIRECTION('',(0.,0.,-1.));
#349=DIRECTION('',(-1.,0.,0.));
#350=DIRECTION('',(0.,0.,1.));
#351=DIRECTION('',(1.,0.,0.));
#352=DIRECTION('',(0.,0.,1.));
#353=DIRECTION('',(1.,0.,0.));
#354=DIRECTION('',(0.,0.,1.));
#355=DIRECTION('',(1.,0.,0.));
#356=DIRECTION('',(0.,0.,1.));
#357=DIRECTION('',(1.,0.,0.));
#358=DIRECTION('',(0.,0.,1.));
#359=DIRECTION('',(1.,0.,0.));
#360=DIRECTION('',(0.,0.,1.));
#361=DIRECTION('',(1.,0.,0.));
#362=DIRECTION('',(0.,0.,1.));
#363=DIRECTION('',(1.,0.,0.));
#364=DIRECTION('',(0.,0.,1.));
#365=DIRECTION('',(1.,0.,0.));
#366=DIRECTION('',(0.,0.,1.));
#367=DIRECTION('',(1.,0.,0.));
#368=DIRECTION('',(0.,0.,1.));
#369=DIRECTION('',(1.,0.,0.));
#370=DIRECTION('',(0.,0.,1.));
#371=DIRECTION('',(1.,0.,0.));
#372=DIRECTION('',(0.,0.,1.));
#373=DIRECTION('',(1.,0.,0.));
#374=DIRECTION('',(0.,0.,1.));
#375=DIRECTION('',(1.,0.,0.));
#376=DIRECTION('',(0.,0.,-1.));
#377=DIRECTION('',(-1.,0.,0.));
#378=DIRECTION('',(-1.,0.,0.));
#379=DIRECTION('',(0.,0.,1.));
#380=CARTESIAN_POINT('',(0.,0.,0.));
#381=CARTESIAN_POINT('',(1.0842021724855E-16,-1.15527432742086E-16,-0.000216975567742034));
#382=CARTESIAN_POINT('',(8.06646416329213E-17,-1.15527432742086E-16,0.499783024432258));
#383=CARTESIAN_POINT('',(-5.85469173142173E-16,3.,0.499783024432258));
#384=CARTESIAN_POINT('',(1.0842021724855E-16,-1.15527432742086E-16,-0.000216975567742034));
#385=CARTESIAN_POINT('',(-6.6873589998906E-16,3.5,-0.000216975567742228));
#386=CARTESIAN_POINT('',(-4.74446870679657E-16,-1.15527432742086E-16,10.4997830244323));
#387=CARTESIAN_POINT('',(-4.74446870679657E-16,-1.15527432742086E-16,10.4997830244323));
#388=CARTESIAN_POINT('',(3.,-1.15527432742086E-16,10.4997830244323));
#389=CARTESIAN_POINT('',(-5.03811211756433E-16,-1.15527432742086E-16,11.0287639665577));
#390=CARTESIAN_POINT('',(1.0842021724855E-16,-1.15527432742086E-16,-0.000216975567742064));
#391=CARTESIAN_POINT('',(2.94972386868624,-0.651766579520217,1.46991684089937));
#392=CARTESIAN_POINT('',(3.05216274791057,0.221214023174973,1.28841584954755));
#393=CARTESIAN_POINT('',(2.78191592537366,1.26790668902632,1.73641851605903));
#394=CARTESIAN_POINT('',(2.46275613812487,1.70934177340885,2.77332042542027));
#395=CARTESIAN_POINT('',(2.5837300876605,1.53258047217983,3.6451327746253));
#396=CARTESIAN_POINT('',(2.83738160606042,1.0641032327193,4.34551871533056));
#397=CARTESIAN_POINT('',(3.10842413780651,0.00762392386619394,4.80038933581267));
#398=CARTESIAN_POINT('',(2.78309455642638,-1.26999863934652,4.26852997017902));
#399=CARTESIAN_POINT('',(2.39643391128272,-1.7980273998297,3.00842504334169));
#400=CARTESIAN_POINT('',(2.71384333244855,-1.35286724506188,1.94276546487302));
#401=CARTESIAN_POINT('',(2.94972386868624,-0.651766579520217,1.46991684089937));
#402=CARTESIAN_POINT('',(3.05216274791057,0.221214023174973,1.28841584954755));
#403=CARTESIAN_POINT('',(2.78191592537366,1.26790668902632,1.73641851605903));
#404=CARTESIAN_POINT('',(3.,-2.3911153567356E-16,1.37878302443225));
#405=CARTESIAN_POINT('',(1.34971091912675E-31,2.20431800784617E-15,-11.0002169755677));
#406=CARTESIAN_POINT('',(7.35646653897199E-32,1.2014418373725E-15,12.5997830244323));
#407=CARTESIAN_POINT('',(8.24863625092051,1.2014418373725E-15,12.5997830244323));
#408=CARTESIAN_POINT('',(6.03289139112403E-16,9.85278472922095,12.5997830244323));
#409=CARTESIAN_POINT('',(7.35646653897199E-32,1.2014418373725E-15,12.5997830244323));
#410=CARTESIAN_POINT('',(9.85278472922095,1.2014418373725E-15,12.5997830244323));
#411=CARTESIAN_POINT('',(9.62964972193618E-32,1.73472347597681E-15,12.3997830244323));
#412=CARTESIAN_POINT('',(7.35646653897199E-32,1.2014418373725E-15,12.4330416619802));
#413=CARTESIAN_POINT('',(10.05,1.2014418373725E-15,12.4330416619802));
#414=CARTESIAN_POINT('',(7.35646653897199E-32,1.2014418373725E-15,6.79978302443226));
#415=CARTESIAN_POINT('',(7.35646653897199E-32,1.2014418373725E-15,6.79978302443226));
#416=CARTESIAN_POINT('',(11.,1.2014418373725E-15,6.79978302443226));
#417=CARTESIAN_POINT('',(7.35646653897199E-32,1.2014418373725E-15,9.81084112149533));
#418=CARTESIAN_POINT('',(7.35646653897199E-32,1.2014418373725E-15,6.19978302443226));
#419=CARTESIAN_POINT('',(11.,1.2014418373725E-15,6.19978302443226));
#420=CARTESIAN_POINT('',(9.62964972193618E-32,1.73472347597681E-15,6.19978302443226));
#421=CARTESIAN_POINT('',(7.35646653897199E-32,1.2014418373725E-15,5.99978302443226));
#422=CARTESIAN_POINT('',(10.8,1.2014418373725E-15,5.99978302443226));
#423=CARTESIAN_POINT('',(6.61287431064084E-16,10.8,5.99978302443226));
#424=CARTESIAN_POINT('',(7.35646653897199E-32,1.2014418373725E-15,5.99978302443226));
#425=CARTESIAN_POINT('',(7.5745256839889,1.2014418373725E-15,5.99978302443226));
#426=CARTESIAN_POINT('',(9.62964972193618E-32,8.67361737988404E-16,5.8002074888715));
#427=CARTESIAN_POINT('',(7.35646653897199E-32,1.2014418373725E-15,5.79574701545227));
#428=CARTESIAN_POINT('',(7.375,1.2014418373725E-15,5.79574701545227));
#429=CARTESIAN_POINT('',(9.62964972193618E-32,8.67361737988404E-16,0.199783024432254));
#430=CARTESIAN_POINT('',(7.35646653897199E-32,1.2014418373725E-15,0.204252984547043));
#431=CARTESIAN_POINT('',(7.5,1.2014418373725E-15,0.204252984547043));
#432=CARTESIAN_POINT('',(7.35646653897199E-32,1.2014418373725E-15,-0.000216975567745442));
#433=CARTESIAN_POINT('',(7.30004995759797,1.2014418373725E-15,-0.000216975567745442));
#434=CARTESIAN_POINT('',(4.46984378064763E-16,7.30004995759798,-0.000216975567746431));
#435=CARTESIAN_POINT('',(7.35646653897199E-32,1.2014418373725E-15,0.204252984547043));
#436=CARTESIAN_POINT('',(7.2127389871177,-1.79606662584981,3.03375432608543));
#437=CARTESIAN_POINT('',(7.37244917332116,-1.2942111413303,1.75436840498773));
#438=CARTESIAN_POINT('',(7.52133125676526,-0.0356765063515782,1.203971517665));
#439=CARTESIAN_POINT('',(7.38422235585116,1.24331329482628,1.70437078244985));
#440=CARTESIAN_POINT('',(7.2145566902869,1.79604274794132,2.95916359829102));
#441=CARTESIAN_POINT('',(7.31521305105218,1.29617027408585,4.24408929974645));
#442=CARTESIAN_POINT('',(7.44174669161301,0.0382616093771304,4.79585283542794));
#443=CARTESIAN_POINT('',(7.32498226686594,-1.24574831438587,4.29506898779783));
#444=CARTESIAN_POINT('',(7.2127389871177,-1.79606662584981,3.03375432608543));
#445=CARTESIAN_POINT('',(7.37244917332116,-1.2942111413303,1.75436840498773));
#446=CARTESIAN_POINT('',(7.52133125676526,-0.0356765063515782,1.203971517665));
#447=CARTESIAN_POINT('',(7.37064448952794,-1.16809794958684,1.8758665772837));
#448=CARTESIAN_POINT('',(34.117444218464,0.,2.99978302443225));
#449=MECHANICAL_DESIGN_GEOMETRIC_PRESENTATION_REPRESENTATION('',(#173,#174,
#175,#176,#177,#178,#179,#180,#181,#182,#183,#184,#185,#186),#450);
#450=(
GEOMETRIC_REPRESENTATION_CONTEXT(3)
GLOBAL_UNCERTAINTY_ASSIGNED_CONTEXT((#451))
GLOBAL_UNIT_ASSIGNED_CONTEXT((#454,#453,#452))
REPRESENTATION_CONTEXT('Parte14','TOP_LEVEL_ASSEMBLY_PART')
);
#451=UNCERTAINTY_MEASURE_WITH_UNIT(LENGTH_MEASURE(0.005),#454,
'DISTANCE_ACCURACY_VALUE','Maximum Tolerance applied to model');
#452=(
NAMED_UNIT(*)
SI_UNIT($,.STERADIAN.)
SOLID_ANGLE_UNIT()
);
#453=(
NAMED_UNIT(*)
PLANE_ANGLE_UNIT()
SI_UNIT($,.RADIAN.)
);
#454=(
LENGTH_UNIT()
NAMED_UNIT(*)
SI_UNIT(.MILLI.,.METRE.)
);
#455=PRODUCT_DEFINITION_SHAPE('','',#456);
#456=PRODUCT_DEFINITION('','',#458,#457);
#457=DESIGN_CONTEXT('',#464,'design');
#458=PRODUCT_DEFINITION_FORMATION_WITH_SPECIFIED_SOURCE('','',#460,
 .NOT_KNOWN.);
#459=PRODUCT_RELATED_PRODUCT_CATEGORY('','',(#460));
#460=PRODUCT('Parte14','Parte14','Parte14',(#462));
#461=PRODUCT_CATEGORY('','');
#462=MECHANICAL_CONTEXT('',#464,'mechanical');
#463=APPLICATION_PROTOCOL_DEFINITION('international standard',
'config_control_design',2010,#464);
#464=APPLICATION_CONTEXT(
'configuration controlled 3D designs of mechanical parts and assemblie
s');
ENDSEC;
END-ISO-10303-21;
