ISO-10303-21;
HEADER;
FILE_DESCRIPTION( ( 'Unknown' ), '1' );
FILE_NAME( 'E:/98-Dis_3D_per_controllo/ZB-FP/6332011_ZB22_FP_M06/6332011_ZB22_FP_M06.stp', 'Unknown', ( 'Unknown' ), ( 'Unknown' ), 'PSStep 11.0', 'Unknown', '  ' );
FILE_SCHEMA( ( 'AUTOMOTIVE_DESIGN { 1 0 10303 214 1 1 1 1 }' ) );
ENDSEC;
DATA;
#1 = MECHANICAL_DESIGN_GEOMETRIC_PRESENTATION_REPRESENTATION( ' ', ( #10, #11, #12, #13, #14, #15, #16, #17, #18, #19, #20, #21, #22, #23, #24, #25, #26 ), #6 );
#2 = PRODUCT_DEFINITION_CONTEXT( '', #27, 'design' );
#3 = APPLICATION_PROTOCOL_DEFINITION( 'INTERNATIONAL STANDARD', 'automotive_design', 2001, #27 );
#4 = PRODUCT_CATEGORY_RELATIONSHIP( 'NONE', 'NONE', #28, #29 );
#5 = SHAPE_DEFINITION_REPRESENTATION( #30, #31 );
#6 =  ( GEOMETRIC_REPRESENTATION_CONTEXT( 3 )GLOBAL_UNCERTAINTY_ASSIGNED_CONTEXT( ( #34 ) )GLOBAL_UNIT_ASSIGNED_CONTEXT( ( #36, #37, #38 ) )REPRESENTATION_CONTEXT( 'NONE', 'WORKSPACE' ) );
#10 = STYLED_ITEM( '', ( #40 ), #41 );
#11 = STYLED_ITEM( '', ( #42 ), #43 );
#12 = STYLED_ITEM( '', ( #44 ), #45 );
#13 = STYLED_ITEM( '', ( #46 ), #47 );
#14 = STYLED_ITEM( '', ( #48 ), #49 );
#15 = STYLED_ITEM( '', ( #50 ), #51 );
#16 = STYLED_ITEM( '', ( #52 ), #53 );
#17 = STYLED_ITEM( '', ( #54 ), #55 );
#18 = STYLED_ITEM( '', ( #56 ), #57 );
#19 = STYLED_ITEM( '', ( #58 ), #59 );
#20 = STYLED_ITEM( '', ( #60 ), #61 );
#21 = STYLED_ITEM( '', ( #62 ), #63 );
#22 = STYLED_ITEM( '', ( #64 ), #65 );
#23 = STYLED_ITEM( '', ( #66 ), #67 );
#24 = STYLED_ITEM( '', ( #68 ), #69 );
#25 = STYLED_ITEM( '', ( #70 ), #71 );
#26 = STYLED_ITEM( '', ( #72 ), #73 );
#27 = APPLICATION_CONTEXT( 'core data for automotive mechanical design processes' );
#28 = PRODUCT_CATEGORY( 'part', 'NONE' );
#29 = PRODUCT_RELATED_PRODUCT_CATEGORY( 'detail', ' ', ( #74 ) );
#30 = PRODUCT_DEFINITION_SHAPE( 'NONE', 'NONE', #75 );
#31 = ADVANCED_BREP_SHAPE_REPRESENTATION( '6332011', ( #76, #77 ), #6 );
#34 = UNCERTAINTY_MEASURE_WITH_UNIT( LENGTH_MEASURE( 0.00100000000000000 ), #36, '', '' );
#36 =  ( CONVERSION_BASED_UNIT( 'MILLIMETRE', #80 )LENGTH_UNIT(  )NAMED_UNIT( #83 ) );
#37 =  ( NAMED_UNIT( #85 )PLANE_ANGLE_UNIT(  )SI_UNIT( $, .RADIAN. ) );
#38 =  ( NAMED_UNIT( #85 )SI_UNIT( $, .STERADIAN. )SOLID_ANGLE_UNIT(  ) );
#40 = PRESENTATION_STYLE_ASSIGNMENT( ( #91 ) );
#41 = ADVANCED_FACE( '', ( #92, #93 ), #94, .T. );
#42 = PRESENTATION_STYLE_ASSIGNMENT( ( #95 ) );
#43 = ADVANCED_FACE( '', ( #96, #97 ), #98, .T. );
#44 = PRESENTATION_STYLE_ASSIGNMENT( ( #99 ) );
#45 = ADVANCED_FACE( '', ( #100, #101 ), #102, .T. );
#46 = PRESENTATION_STYLE_ASSIGNMENT( ( #103 ) );
#47 = ADVANCED_FACE( '', ( #104, #105 ), #106, .F. );
#48 = PRESENTATION_STYLE_ASSIGNMENT( ( #107 ) );
#49 = ADVANCED_FACE( '', ( #108, #109 ), #110, .F. );
#50 = PRESENTATION_STYLE_ASSIGNMENT( ( #111 ) );
#51 = ADVANCED_FACE( '', ( #112, #113 ), #114, .F. );
#52 = PRESENTATION_STYLE_ASSIGNMENT( ( #115 ) );
#53 = ADVANCED_FACE( '', ( #116, #117 ), #118, .T. );
#54 = PRESENTATION_STYLE_ASSIGNMENT( ( #119 ) );
#55 = ADVANCED_FACE( '', ( #120, #121 ), #122, .F. );
#56 = PRESENTATION_STYLE_ASSIGNMENT( ( #123 ) );
#57 = ADVANCED_FACE( '', ( #124, #125 ), #126, .F. );
#58 = PRESENTATION_STYLE_ASSIGNMENT( ( #127 ) );
#59 = ADVANCED_FACE( '', ( #128, #129 ), #130, .T. );
#60 = PRESENTATION_STYLE_ASSIGNMENT( ( #131 ) );
#61 = ADVANCED_FACE( '', ( #132, #133 ), #134, .F. );
#62 = PRESENTATION_STYLE_ASSIGNMENT( ( #135 ) );
#63 = ADVANCED_FACE( '', ( #136, #137 ), #138, .T. );
#64 = PRESENTATION_STYLE_ASSIGNMENT( ( #139 ) );
#65 = ADVANCED_FACE( '', ( #140, #141 ), #142, .F. );
#66 = PRESENTATION_STYLE_ASSIGNMENT( ( #143 ) );
#67 = ADVANCED_FACE( '', ( #144, #145 ), #146, .T. );
#68 = PRESENTATION_STYLE_ASSIGNMENT( ( #147 ) );
#69 = ADVANCED_FACE( '', ( #148, #149 ), #150, .T. );
#70 = PRESENTATION_STYLE_ASSIGNMENT( ( #151 ) );
#71 = ADVANCED_FACE( '', ( #152, #153 ), #154, .F. );
#72 = PRESENTATION_STYLE_ASSIGNMENT( ( #155 ) );
#73 = ADVANCED_FACE( '', ( #156, #157 ), #158, .F. );
#74 = PRODUCT( '6332011', '6332011', 'PART-6332011-DESC', ( #159 ) );
#75 = PRODUCT_DEFINITION( 'NONE', 'NONE', #160, #2 );
#76 = MANIFOLD_SOLID_BREP( '6332011', #161 );
#77 = AXIS2_PLACEMENT_3D( '', #162, #163, #164 );
#80 = LENGTH_MEASURE_WITH_UNIT( LENGTH_MEASURE( 1.00000000000000 ), #165 );
#83 = DIMENSIONAL_EXPONENTS( 1.00000000000000, 0.000000000000000, 0.000000000000000, 0.000000000000000, 0.000000000000000, 0.000000000000000, 0.000000000000000 );
#85 = DIMENSIONAL_EXPONENTS( 0.000000000000000, 0.000000000000000, 0.000000000000000, 0.000000000000000, 0.000000000000000, 0.000000000000000, 0.000000000000000 );
#91 = SURFACE_STYLE_USAGE( .BOTH., #166 );
#92 = FACE_OUTER_BOUND( '', #167, .T. );
#93 = FACE_OUTER_BOUND( '', #168, .T. );
#94 = TOROIDAL_SURFACE( '', #169, 5.00000000000000, 0.500000000000000 );
#95 = SURFACE_STYLE_USAGE( .BOTH., #170 );
#96 = FACE_OUTER_BOUND( '', #171, .T. );
#97 = FACE_OUTER_BOUND( '', #172, .T. );
#98 = SPHERICAL_SURFACE( '', #173, 25.0000000000000 );
#99 = SURFACE_STYLE_USAGE( .BOTH., #174 );
#100 = FACE_OUTER_BOUND( '', #175, .T. );
#101 = FACE_OUTER_BOUND( '', #176, .T. );
#102 = TOROIDAL_SURFACE( '', #177, 10.8000000000000, 0.200000000000000 );
#103 = SURFACE_STYLE_USAGE( .BOTH., #178 );
#104 = FACE_OUTER_BOUND( '', #179, .T. );
#105 = FACE_BOUND( '', #180, .T. );
#106 = PLANE( '', #181 );
#107 = SURFACE_STYLE_USAGE( .BOTH., #182 );
#108 = FACE_OUTER_BOUND( '', #183, .T. );
#109 = FACE_BOUND( '', #184, .T. );
#110 = PLANE( '', #185 );
#111 = SURFACE_STYLE_USAGE( .BOTH., #186 );
#112 = FACE_OUTER_BOUND( '', #187, .T. );
#113 = FACE_OUTER_BOUND( '', #188, .T. );
#114 = CYLINDRICAL_SURFACE( '', #189, 2.45850000000000 );
#115 = SURFACE_STYLE_USAGE( .BOTH., #190 );
#116 = FACE_OUTER_BOUND( '', #191, .T. );
#117 = FACE_OUTER_BOUND( '', #192, .T. );
#118 = TOROIDAL_SURFACE( '', #193, 9.85278472922095, 0.200000000000000 );
#119 = SURFACE_STYLE_USAGE( .BOTH., #194 );
#120 = FACE_BOUND( '', #195, .T. );
#121 = FACE_OUTER_BOUND( '', #196, .T. );
#122 = PLANE( '', #197 );
#123 = SURFACE_STYLE_USAGE( .BOTH., #198 );
#124 = FACE_OUTER_BOUND( '', #199, .T. );
#125 = FACE_OUTER_BOUND( '', #200, .T. );
#126 = TOROIDAL_SURFACE( '', #201, 7.57452568398890, 0.199575535560758 );
#127 = SURFACE_STYLE_USAGE( .BOTH., #202 );
#128 = FACE_BOUND( '', #203, .T. );
#129 = FACE_OUTER_BOUND( '', #204, .T. );
#130 = CONICAL_SURFACE( '', #205, 11.0000000000000, 0.167069314570506 );
#131 = SURFACE_STYLE_USAGE( .BOTH., #206 );
#132 = FACE_BOUND( '', #207, .T. );
#133 = FACE_OUTER_BOUND( '', #208, .T. );
#134 = PLANE( '', #209 );
#135 = SURFACE_STYLE_USAGE( .BOTH., #210 );
#136 = FACE_BOUND( '', #211, .T. );
#137 = FACE_OUTER_BOUND( '', #212, .T. );
#138 = CONICAL_SURFACE( '', #213, 7.50000000000000, 0.0223516616638408 );
#139 = SURFACE_STYLE_USAGE( .BOTH., #214 );
#140 = FACE_BOUND( '', #215, .T. );
#141 = FACE_OUTER_BOUND( '', #216, .T. );
#142 = CONICAL_SURFACE( '', #217, 2.95850000000000, 0.785398163397448 );
#143 = SURFACE_STYLE_USAGE( .BOTH., #218 );
#144 = FACE_OUTER_BOUND( '', #219, .T. );
#145 = FACE_OUTER_BOUND( '', #220, .T. );
#146 = CYLINDRICAL_SURFACE( '', #221, 11.0000000000000 );
#147 = SURFACE_STYLE_USAGE( .BOTH., #222 );
#148 = FACE_OUTER_BOUND( '', #223, .T. );
#149 = FACE_OUTER_BOUND( '', #224, .T. );
#150 = TOROIDAL_SURFACE( '', #225, 7.30004995759797, 0.200000000000000 );
#151 = SURFACE_STYLE_USAGE( .BOTH., #226 );
#152 = FACE_OUTER_BOUND( '', #227, .T. );
#153 = FACE_OUTER_BOUND( '', #228, .T. );
#154 = CYLINDRICAL_SURFACE( '', #229, 4.50000000000000 );
#155 = SURFACE_STYLE_USAGE( .BOTH., #230 );
#156 = FACE_BOUND( '', #231, .T. );
#157 = FACE_OUTER_BOUND( '', #232, .T. );
#158 = CONICAL_SURFACE( '', #233, 2.95850000000000, 0.785398163397448 );
#159 = PRODUCT_CONTEXT( '', #27, 'mechanical' );
#160 = PRODUCT_DEFINITION_FORMATION_WITH_SPECIFIED_SOURCE( ' ', 'NONE', #74, .NOT_KNOWN. );
#161 = CLOSED_SHELL( '', ( #71, #41, #61, #49, #43, #65, #69, #55, #53, #59, #67, #45, #47, #57, #63, #73, #51 ) );
#162 = CARTESIAN_POINT( '', ( 0.000000000000000, 0.000000000000000, 0.000000000000000 ) );
#163 = DIRECTION( '', ( 0.000000000000000, 0.000000000000000, 1.00000000000000 ) );
#164 = DIRECTION( '', ( 1.00000000000000, 0.000000000000000, 0.000000000000000 ) );
#165 =  ( LENGTH_UNIT(  )NAMED_UNIT( #83 )SI_UNIT( .MILLI., .METRE. ) );
#166 = SURFACE_SIDE_STYLE( '', ( #235 ) );
#167 = EDGE_LOOP( '', ( #236 ) );
#168 = EDGE_LOOP( '', ( #237 ) );
#169 = AXIS2_PLACEMENT_3D( '', #238, #239, #240 );
#170 = SURFACE_SIDE_STYLE( '', ( #241 ) );
#171 = EDGE_LOOP( '', ( #242 ) );
#172 = EDGE_LOOP( '', ( #243 ) );
#173 = AXIS2_PLACEMENT_3D( '', #244, #245, #246 );
#174 = SURFACE_SIDE_STYLE( '', ( #247 ) );
#175 = EDGE_LOOP( '', ( #248 ) );
#176 = EDGE_LOOP( '', ( #249 ) );
#177 = AXIS2_PLACEMENT_3D( '', #250, #251, #252 );
#178 = SURFACE_SIDE_STYLE( '', ( #253 ) );
#179 = EDGE_LOOP( '', ( #254 ) );
#180 = EDGE_LOOP( '', ( #255 ) );
#181 = AXIS2_PLACEMENT_3D( '', #256, #257, #258 );
#182 = SURFACE_SIDE_STYLE( '', ( #259 ) );
#183 = EDGE_LOOP( '', ( #260 ) );
#184 = EDGE_LOOP( '', ( #261 ) );
#185 = AXIS2_PLACEMENT_3D( '', #262, #263, #264 );
#186 = SURFACE_SIDE_STYLE( '', ( #265 ) );
#187 = EDGE_LOOP( '', ( #266 ) );
#188 = EDGE_LOOP( '', ( #267 ) );
#189 = AXIS2_PLACEMENT_3D( '', #268, #269, #270 );
#190 = SURFACE_SIDE_STYLE( '', ( #271 ) );
#191 = EDGE_LOOP( '', ( #272 ) );
#192 = EDGE_LOOP( '', ( #273 ) );
#193 = AXIS2_PLACEMENT_3D( '', #274, #275, #276 );
#194 = SURFACE_SIDE_STYLE( '', ( #277 ) );
#195 = EDGE_LOOP( '', ( #278 ) );
#196 = EDGE_LOOP( '', ( #279 ) );
#197 = AXIS2_PLACEMENT_3D( '', #280, #281, #282 );
#198 = SURFACE_SIDE_STYLE( '', ( #283 ) );
#199 = EDGE_LOOP( '', ( #284 ) );
#200 = EDGE_LOOP( '', ( #285 ) );
#201 = AXIS2_PLACEMENT_3D( '', #286, #287, #288 );
#202 = SURFACE_SIDE_STYLE( '', ( #289 ) );
#203 = EDGE_LOOP( '', ( #290 ) );
#204 = EDGE_LOOP( '', ( #291 ) );
#205 = AXIS2_PLACEMENT_3D( '', #292, #293, #294 );
#206 = SURFACE_SIDE_STYLE( '', ( #295 ) );
#207 = EDGE_LOOP( '', ( #296 ) );
#208 = EDGE_LOOP( '', ( #297 ) );
#209 = AXIS2_PLACEMENT_3D( '', #298, #299, #300 );
#210 = SURFACE_SIDE_STYLE( '', ( #301 ) );
#211 = EDGE_LOOP( '', ( #302 ) );
#212 = EDGE_LOOP( '', ( #303 ) );
#213 = AXIS2_PLACEMENT_3D( '', #304, #305, #306 );
#214 = SURFACE_SIDE_STYLE( '', ( #307 ) );
#215 = EDGE_LOOP( '', ( #308 ) );
#216 = EDGE_LOOP( '', ( #309 ) );
#217 = AXIS2_PLACEMENT_3D( '', #310, #311, #312 );
#218 = SURFACE_SIDE_STYLE( '', ( #313 ) );
#219 = EDGE_LOOP( '', ( #314 ) );
#220 = EDGE_LOOP( '', ( #315 ) );
#221 = AXIS2_PLACEMENT_3D( '', #316, #317, #318 );
#222 = SURFACE_SIDE_STYLE( '', ( #319 ) );
#223 = EDGE_LOOP( '', ( #320 ) );
#224 = EDGE_LOOP( '', ( #321 ) );
#225 = AXIS2_PLACEMENT_3D( '', #322, #323, #324 );
#226 = SURFACE_SIDE_STYLE( '', ( #325 ) );
#227 = EDGE_LOOP( '', ( #326 ) );
#228 = EDGE_LOOP( '', ( #327 ) );
#229 = AXIS2_PLACEMENT_3D( '', #328, #329, #330 );
#230 = SURFACE_SIDE_STYLE( '', ( #331 ) );
#231 = EDGE_LOOP( '', ( #332 ) );
#232 = EDGE_LOOP( '', ( #333 ) );
#233 = AXIS2_PLACEMENT_3D( '', #334, #335, #336 );
#235 = SURFACE_STYLE_FILL_AREA( #337 );
#236 = ORIENTED_EDGE( '', *, *, #338, .F. );
#237 = ORIENTED_EDGE( '', *, *, #339, .F. );
#238 = CARTESIAN_POINT( '', ( 0.000000000000000, 0.000000000000000, 12.9841529348552 ) );
#239 = DIRECTION( '', ( 0.000000000000000, 0.000000000000000, -1.00000000000000 ) );
#240 = DIRECTION( '', ( -1.00000000000000, 0.000000000000000, 0.000000000000000 ) );
#241 = SURFACE_STYLE_FILL_AREA( #340 );
#242 = ORIENTED_EDGE( '', *, *, #338, .T. );
#243 = ORIENTED_EDGE( '', *, *, #341, .T. );
#244 = CARTESIAN_POINT( '', ( 1.34971091912675E-031, 2.20431800784617E-015, -11.0002169755677 ) );
#245 = DIRECTION( '', ( 0.000000000000000, 0.000000000000000, 1.00000000000000 ) );
#246 = DIRECTION( '', ( 6.12303176911189E-017, 1.00000000000000, 0.000000000000000 ) );
#247 = SURFACE_STYLE_FILL_AREA( #342 );
#248 = ORIENTED_EDGE( '', *, *, #343, .F. );
#249 = ORIENTED_EDGE( '', *, *, #344, .T. );
#250 = CARTESIAN_POINT( '', ( 9.62964972193618E-032, 1.73472347597680E-015, 6.19978302443226 ) );
#251 = DIRECTION( '', ( 0.000000000000000, 0.000000000000000, 1.00000000000000 ) );
#252 = DIRECTION( '', ( 1.00000000000000, 0.000000000000000, 0.000000000000000 ) );
#253 = SURFACE_STYLE_FILL_AREA( #345 );
#254 = ORIENTED_EDGE( '', *, *, #344, .F. );
#255 = ORIENTED_EDGE( '', *, *, #346, .T. );
#256 = CARTESIAN_POINT( '', ( 6.61287431064084E-016, 10.8000000000000, 5.99978302443226 ) );
#257 = DIRECTION( '', ( 0.000000000000000, 0.000000000000000, 1.00000000000000 ) );
#258 = DIRECTION( '', ( 1.00000000000000, 0.000000000000000, 0.000000000000000 ) );
#259 = SURFACE_STYLE_FILL_AREA( #347 );
#260 = ORIENTED_EDGE( '', *, *, #348, .F. );
#261 = ORIENTED_EDGE( '', *, *, #349, .T. );
#262 = CARTESIAN_POINT( '', ( 4.46984378064763E-016, 7.30004995759798, -0.000216975567746431 ) );
#263 = DIRECTION( '', ( 0.000000000000000, 0.000000000000000, 1.00000000000000 ) );
#264 = DIRECTION( '', ( 1.00000000000000, 0.000000000000000, 0.000000000000000 ) );
#265 = SURFACE_STYLE_FILL_AREA( #350 );
#266 = ORIENTED_EDGE( '', *, *, #351, .T. );
#267 = ORIENTED_EDGE( '', *, *, #352, .T. );
#268 = CARTESIAN_POINT( '', ( 9.30403450994645E-016, -2.84955099313966E-032, 11.0997830244323 ) );
#269 = DIRECTION( '', ( 8.38526780093755E-017, -5.13432611376516E-033, 1.00000000000000 ) );
#270 = DIRECTION( '', ( -1.00000000000000, 0.000000000000000, 8.38526780093755E-017 ) );
#271 = SURFACE_STYLE_FILL_AREA( #353 );
#272 = ORIENTED_EDGE( '', *, *, #354, .F. );
#273 = ORIENTED_EDGE( '', *, *, #355, .T. );
#274 = CARTESIAN_POINT( '', ( 9.62964972193618E-032, 1.73472347597680E-015, 12.3997830244323 ) );
#275 = DIRECTION( '', ( 0.000000000000000, 0.000000000000000, 1.00000000000000 ) );
#276 = DIRECTION( '', ( 1.00000000000000, 0.000000000000000, 0.000000000000000 ) );
#277 = SURFACE_STYLE_FILL_AREA( #356 );
#278 = ORIENTED_EDGE( '', *, *, #341, .F. );
#279 = ORIENTED_EDGE( '', *, *, #354, .T. );
#280 = CARTESIAN_POINT( '', ( 6.03289139112403E-016, 9.85278472922095, 12.5997830244323 ) );
#281 = DIRECTION( '', ( 0.000000000000000, 0.000000000000000, -1.00000000000000 ) );
#282 = DIRECTION( '', ( -1.00000000000000, 0.000000000000000, 0.000000000000000 ) );
#283 = SURFACE_STYLE_FILL_AREA( #357 );
#284 = ORIENTED_EDGE( '', *, *, #346, .F. );
#285 = ORIENTED_EDGE( '', *, *, #358, .T. );
#286 = CARTESIAN_POINT( '', ( 9.62964972193618E-032, 8.67361737988404E-016, 5.80020748887150 ) );
#287 = DIRECTION( '', ( 0.000000000000000, 0.000000000000000, 1.00000000000000 ) );
#288 = DIRECTION( '', ( 1.00000000000000, 0.000000000000000, 0.000000000000000 ) );
#289 = SURFACE_STYLE_FILL_AREA( #359 );
#290 = ORIENTED_EDGE( '', *, *, #355, .F. );
#291 = ORIENTED_EDGE( '', *, *, #360, .T. );
#292 = CARTESIAN_POINT( '', ( 7.35646653897199E-032, 1.20144183737250E-015, 6.79978302443226 ) );
#293 = DIRECTION( '', ( -0.000000000000000, 0.000000000000000, -1.00000000000000 ) );
#294 = DIRECTION( '', ( -1.00000000000000, 0.000000000000000, 0.000000000000000 ) );
#295 = SURFACE_STYLE_FILL_AREA( #361 );
#296 = ORIENTED_EDGE( '', *, *, #362, .T. );
#297 = ORIENTED_EDGE( '', *, *, #363, .T. );
#298 = CARTESIAN_POINT( '', ( 4.50000000000000, -2.75536429610036E-016, 11.0997830244323 ) );
#299 = DIRECTION( '', ( -8.38526780093755E-017, 5.13432611376516E-033, -1.00000000000000 ) );
#300 = DIRECTION( '', ( 1.00000000000000, 0.000000000000000, -8.38526780093755E-017 ) );
#301 = SURFACE_STYLE_FILL_AREA( #364 );
#302 = ORIENTED_EDGE( '', *, *, #358, .F. );
#303 = ORIENTED_EDGE( '', *, *, #365, .T. );
#304 = CARTESIAN_POINT( '', ( 7.35646653897199E-032, 1.20144183737250E-015, 0.204252984547043 ) );
#305 = DIRECTION( '', ( -0.000000000000000, 0.000000000000000, -1.00000000000000 ) );
#306 = DIRECTION( '', ( -1.00000000000000, 0.000000000000000, 0.000000000000000 ) );
#307 = SURFACE_STYLE_FILL_AREA( #366 );
#308 = ORIENTED_EDGE( '', *, *, #352, .F. );
#309 = ORIENTED_EDGE( '', *, *, #349, .F. );
#310 = CARTESIAN_POINT( '', ( -3.61274909422711E-019, 2.84955099313966E-032, -0.000216975567741973 ) );
#311 = DIRECTION( '', ( -8.38526780093753E-017, 5.13432611376516E-033, -1.00000000000000 ) );
#312 = DIRECTION( '', ( 1.00000000000000, 0.000000000000000, -8.38526780093753E-017 ) );
#313 = SURFACE_STYLE_FILL_AREA( #367 );
#314 = ORIENTED_EDGE( '', *, *, #360, .F. );
#315 = ORIENTED_EDGE( '', *, *, #343, .T. );
#316 = CARTESIAN_POINT( '', ( 7.35646653897199E-032, 1.20144183737250E-015, 9.81084112149533 ) );
#317 = DIRECTION( '', ( -0.000000000000000, -0.000000000000000, -1.00000000000000 ) );
#318 = DIRECTION( '', ( 1.00000000000000, 0.000000000000000, 0.000000000000000 ) );
#319 = SURFACE_STYLE_FILL_AREA( #368 );
#320 = ORIENTED_EDGE( '', *, *, #365, .F. );
#321 = ORIENTED_EDGE( '', *, *, #348, .T. );
#322 = CARTESIAN_POINT( '', ( 9.62964972193618E-032, 8.67361737988404E-016, 0.199783024432254 ) );
#323 = DIRECTION( '', ( 0.000000000000000, 0.000000000000000, 1.00000000000000 ) );
#324 = DIRECTION( '', ( 1.00000000000000, 0.000000000000000, 0.000000000000000 ) );
#325 = SURFACE_STYLE_FILL_AREA( #369 );
#326 = ORIENTED_EDGE( '', *, *, #339, .T. );
#327 = ORIENTED_EDGE( '', *, *, #363, .F. );
#328 = CARTESIAN_POINT( '', ( 0.000000000000000, 0.000000000000000, 54.0000000000000 ) );
#329 = DIRECTION( '', ( -0.000000000000000, -0.000000000000000, -1.00000000000000 ) );
#330 = DIRECTION( '', ( 1.00000000000000, 0.000000000000000, 0.000000000000000 ) );
#331 = SURFACE_STYLE_FILL_AREA( #370 );
#332 = ORIENTED_EDGE( '', *, *, #351, .F. );
#333 = ORIENTED_EDGE( '', *, *, #362, .F. );
#334 = CARTESIAN_POINT( '', ( 9.30403450994645E-016, -2.84955099313966E-032, 11.0997830244323 ) );
#335 = DIRECTION( '', ( 8.38526780093755E-017, -5.13432611376516E-033, 1.00000000000000 ) );
#336 = DIRECTION( '', ( -1.00000000000000, 0.000000000000000, 8.38526780093755E-017 ) );
#337 = FILL_AREA_STYLE( '', ( #371 ) );
#338 = EDGE_CURVE( '', #372, #372, #373, .T. );
#339 = EDGE_CURVE( '', #374, #374, #375, .F. );
#340 = FILL_AREA_STYLE( '', ( #376 ) );
#341 = EDGE_CURVE( '', #377, #377, #378, .T. );
#342 = FILL_AREA_STYLE( '', ( #379 ) );
#343 = EDGE_CURVE( '', #380, #380, #381, .T. );
#344 = EDGE_CURVE( '', #382, #382, #383, .T. );
#345 = FILL_AREA_STYLE( '', ( #384 ) );
#346 = EDGE_CURVE( '', #385, #385, #386, .T. );
#347 = FILL_AREA_STYLE( '', ( #387 ) );
#348 = EDGE_CURVE( '', #388, #388, #389, .T. );
#349 = EDGE_CURVE( '', #390, #390, #391, .T. );
#350 = FILL_AREA_STYLE( '', ( #392 ) );
#351 = EDGE_CURVE( '', #393, #393, #394, .F. );
#352 = EDGE_CURVE( '', #395, #395, #396, .F. );
#353 = FILL_AREA_STYLE( '', ( #397 ) );
#354 = EDGE_CURVE( '', #398, #398, #399, .T. );
#355 = EDGE_CURVE( '', #400, #400, #401, .T. );
#356 = FILL_AREA_STYLE( '', ( #402 ) );
#357 = FILL_AREA_STYLE( '', ( #403 ) );
#358 = EDGE_CURVE( '', #404, #404, #405, .T. );
#359 = FILL_AREA_STYLE( '', ( #406 ) );
#360 = EDGE_CURVE( '', #407, #407, #408, .T. );
#361 = FILL_AREA_STYLE( '', ( #409 ) );
#362 = EDGE_CURVE( '', #410, #410, #411, .T. );
#363 = EDGE_CURVE( '', #412, #412, #413, .T. );
#364 = FILL_AREA_STYLE( '', ( #414 ) );
#365 = EDGE_CURVE( '', #415, #415, #416, .T. );
#366 = FILL_AREA_STYLE( '', ( #417 ) );
#367 = FILL_AREA_STYLE( '', ( #418 ) );
#368 = FILL_AREA_STYLE( '', ( #419 ) );
#369 = FILL_AREA_STYLE( '', ( #420 ) );
#370 = FILL_AREA_STYLE( '', ( #421 ) );
#371 = FILL_AREA_STYLE_COLOUR( '', #422 );
#372 = VERTEX_POINT( '', #423 );
#373 = CIRCLE( '', #424, 5.10204081632653 );
#374 = VERTEX_POINT( '', #425 );
#375 = CIRCLE( '', #426, 4.50000000000000 );
#376 = FILL_AREA_STYLE_COLOUR( '', #427 );
#377 = VERTEX_POINT( '', #428 );
#378 = CIRCLE( '', #429, 8.24863625092051 );
#379 = FILL_AREA_STYLE_COLOUR( '', #430 );
#380 = VERTEX_POINT( '', #431 );
#381 = CIRCLE( '', #432, 11.0000000000000 );
#382 = VERTEX_POINT( '', #433 );
#383 = CIRCLE( '', #434, 10.8000000000000 );
#384 = FILL_AREA_STYLE_COLOUR( '', #435 );
#385 = VERTEX_POINT( '', #436 );
#386 = CIRCLE( '', #437, 7.57452568398890 );
#387 = FILL_AREA_STYLE_COLOUR( '', #438 );
#388 = VERTEX_POINT( '', #439 );
#389 = CIRCLE( '', #440, 7.30004995759797 );
#390 = VERTEX_POINT( '', #441 );
#391 = CIRCLE( '', #442, 2.95850000000000 );
#392 = FILL_AREA_STYLE_COLOUR( '', #443 );
#393 = VERTEX_POINT( '', #444 );
#394 = CIRCLE( '', #445, 2.45850000000000 );
#395 = VERTEX_POINT( '', #446 );
#396 = CIRCLE( '', #447, 2.45850000000000 );
#397 = FILL_AREA_STYLE_COLOUR( '', #448 );
#398 = VERTEX_POINT( '', #449 );
#399 = CIRCLE( '', #450, 9.85278472922095 );
#400 = VERTEX_POINT( '', #451 );
#401 = CIRCLE( '', #452, 10.0500000000000 );
#402 = FILL_AREA_STYLE_COLOUR( '', #453 );
#403 = FILL_AREA_STYLE_COLOUR( '', #454 );
#404 = VERTEX_POINT( '', #455 );
#405 = CIRCLE( '', #456, 7.37500000000000 );
#406 = FILL_AREA_STYLE_COLOUR( '', #457 );
#407 = VERTEX_POINT( '', #458 );
#408 = CIRCLE( '', #459, 11.0000000000000 );
#409 = FILL_AREA_STYLE_COLOUR( '', #460 );
#410 = VERTEX_POINT( '', #461 );
#411 = CIRCLE( '', #462, 2.95850000000000 );
#412 = VERTEX_POINT( '', #463 );
#413 = CIRCLE( '', #464, 4.50000000000000 );
#414 = FILL_AREA_STYLE_COLOUR( '', #465 );
#415 = VERTEX_POINT( '', #466 );
#416 = CIRCLE( '', #467, 7.50000000000000 );
#417 = FILL_AREA_STYLE_COLOUR( '', #468 );
#418 = FILL_AREA_STYLE_COLOUR( '', #469 );
#419 = FILL_AREA_STYLE_COLOUR( '', #470 );
#420 = FILL_AREA_STYLE_COLOUR( '', #471 );
#421 = FILL_AREA_STYLE_COLOUR( '', #472 );
#422 = COLOUR_RGB( '', 0.200000002980232, 0.200000002980232, 0.200000002980232 );
#423 = CARTESIAN_POINT( '', ( -5.10204081632653, 2.20431800784617E-015, 13.4736298718026 ) );
#424 = AXIS2_PLACEMENT_3D( '', #473, #474, #475 );
#425 = CARTESIAN_POINT( '', ( -4.50000000000000, 0.000000000000000, 12.9841529348552 ) );
#426 = AXIS2_PLACEMENT_3D( '', #476, #477, #478 );
#427 = COLOUR_RGB( '', 0.200000002980232, 0.200000002980232, 0.200000002980232 );
#428 = CARTESIAN_POINT( '', ( 8.24863625092051, 1.20144183737250E-015, 12.5997830244323 ) );
#429 = AXIS2_PLACEMENT_3D( '', #479, #480, #481 );
#430 = COLOUR_RGB( '', 0.200000002980232, 0.200000002980232, 0.200000002980232 );
#431 = CARTESIAN_POINT( '', ( 11.0000000000000, 1.20144183737250E-015, 6.19978302443226 ) );
#432 = AXIS2_PLACEMENT_3D( '', #482, #483, #484 );
#433 = CARTESIAN_POINT( '', ( 10.8000000000000, 1.20144183737250E-015, 5.99978302443226 ) );
#434 = AXIS2_PLACEMENT_3D( '', #485, #486, #487 );
#435 = COLOUR_RGB( '', 0.200000002980232, 0.200000002980232, 0.200000002980232 );
#436 = CARTESIAN_POINT( '', ( 7.57452568398890, 1.20144183737250E-015, 5.99978302443226 ) );
#437 = AXIS2_PLACEMENT_3D( '', #488, #489, #490 );
#438 = COLOUR_RGB( '', 0.752941191196442, 0.752941191196442, 0.752941191196442 );
#439 = CARTESIAN_POINT( '', ( 7.30004995759797, 1.20144183737250E-015, -0.000216975567745442 ) );
#440 = AXIS2_PLACEMENT_3D( '', #491, #492, #493 );
#441 = CARTESIAN_POINT( '', ( -2.95850000000000, 2.84955099313966E-032, -0.000216975567741194 ) );
#442 = AXIS2_PLACEMENT_3D( '', #494, #495, #496 );
#443 = COLOUR_RGB( '', 0.752941191196442, 0.752941191196442, 0.752941191196442 );
#444 = CARTESIAN_POINT( '', ( 2.45850000000000, -2.59283468745140E-032, 10.5997830244323 ) );
#445 = AXIS2_PLACEMENT_3D( '', #497, #498, #499 );
#446 = CARTESIAN_POINT( '', ( -2.45850000000000, 2.59283468745140E-032, 0.499783024432259 ) );
#447 = AXIS2_PLACEMENT_3D( '', #500, #501, #502 );
#448 = COLOUR_RGB( '', 0.200000002980232, 0.200000002980232, 0.200000002980232 );
#449 = CARTESIAN_POINT( '', ( 9.85278472922095, 1.20144183737250E-015, 12.5997830244323 ) );
#450 = AXIS2_PLACEMENT_3D( '', #503, #504, #505 );
#451 = CARTESIAN_POINT( '', ( 10.0500000000000, 1.20144183737250E-015, 12.4330416619802 ) );
#452 = AXIS2_PLACEMENT_3D( '', #506, #507, #508 );
#453 = COLOUR_RGB( '', 0.200000002980232, 0.200000002980232, 0.200000002980232 );
#454 = COLOUR_RGB( '', 0.200000002980232, 0.200000002980232, 0.200000002980232 );
#455 = CARTESIAN_POINT( '', ( 7.37500000000000, 1.20144183737250E-015, 5.79574701545227 ) );
#456 = AXIS2_PLACEMENT_3D( '', #509, #510, #511 );
#457 = COLOUR_RGB( '', 0.200000002980232, 0.200000002980232, 0.200000002980232 );
#458 = CARTESIAN_POINT( '', ( 11.0000000000000, 1.20144183737250E-015, 6.79978302443226 ) );
#459 = AXIS2_PLACEMENT_3D( '', #512, #513, #514 );
#460 = COLOUR_RGB( '', 0.666666686534882, 0.400000005960464, 0.133333340287209 );
#461 = CARTESIAN_POINT( '', ( 2.95850000000000, -2.84955099313966E-032, 11.0997830244323 ) );
#462 = AXIS2_PLACEMENT_3D( '', #515, #516, #517 );
#463 = CARTESIAN_POINT( '', ( -4.50000000000000, -5.69910198627932E-032, 11.0997830244323 ) );
#464 = AXIS2_PLACEMENT_3D( '', #518, #519, #520 );
#465 = COLOUR_RGB( '', 0.200000002980232, 0.200000002980232, 0.200000002980232 );
#466 = CARTESIAN_POINT( '', ( 7.50000000000000, 1.20144183737250E-015, 0.204252984547043 ) );
#467 = AXIS2_PLACEMENT_3D( '', #521, #522, #523 );
#468 = COLOUR_RGB( '', 0.666666686534882, 0.400000005960464, 0.133333340287209 );
#469 = COLOUR_RGB( '', 0.200000002980232, 0.200000002980232, 0.200000002980232 );
#470 = COLOUR_RGB( '', 0.200000002980232, 0.200000002980232, 0.200000002980232 );
#471 = COLOUR_RGB( '', 0.200000002980232, 0.200000002980232, 0.200000002980232 );
#472 = COLOUR_RGB( '', 0.666666686534882, 0.400000005960464, 0.133333340287209 );
#473 = CARTESIAN_POINT( '', ( 1.34971091912675E-031, 2.20431800784617E-015, 13.4736298718026 ) );
#474 = DIRECTION( '', ( 0.000000000000000, 0.000000000000000, -1.00000000000000 ) );
#475 = DIRECTION( '', ( -1.00000000000000, 0.000000000000000, 0.000000000000000 ) );
#476 = CARTESIAN_POINT( '', ( 0.000000000000000, 0.000000000000000, 12.9841529348552 ) );
#477 = DIRECTION( '', ( 0.000000000000000, 0.000000000000000, -1.00000000000000 ) );
#478 = DIRECTION( '', ( -1.00000000000000, 0.000000000000000, 0.000000000000000 ) );
#479 = CARTESIAN_POINT( '', ( 7.35646653897199E-032, 1.20144183737250E-015, 12.5997830244323 ) );
#480 = DIRECTION( '', ( 0.000000000000000, 0.000000000000000, 1.00000000000000 ) );
#481 = DIRECTION( '', ( 1.00000000000000, 0.000000000000000, 0.000000000000000 ) );
#482 = CARTESIAN_POINT( '', ( 7.35646653897199E-032, 1.20144183737250E-015, 6.19978302443226 ) );
#483 = DIRECTION( '', ( 0.000000000000000, 0.000000000000000, 1.00000000000000 ) );
#484 = DIRECTION( '', ( 1.00000000000000, 0.000000000000000, 0.000000000000000 ) );
#485 = CARTESIAN_POINT( '', ( 7.35646653897199E-032, 1.20144183737250E-015, 5.99978302443226 ) );
#486 = DIRECTION( '', ( 0.000000000000000, 0.000000000000000, 1.00000000000000 ) );
#487 = DIRECTION( '', ( 1.00000000000000, 0.000000000000000, 0.000000000000000 ) );
#488 = CARTESIAN_POINT( '', ( 7.35646653897199E-032, 1.20144183737250E-015, 5.99978302443226 ) );
#489 = DIRECTION( '', ( 0.000000000000000, 0.000000000000000, 1.00000000000000 ) );
#490 = DIRECTION( '', ( 1.00000000000000, 0.000000000000000, 0.000000000000000 ) );
#491 = CARTESIAN_POINT( '', ( 7.35646653897199E-032, 1.20144183737250E-015, -0.000216975567745442 ) );
#492 = DIRECTION( '', ( 0.000000000000000, 0.000000000000000, 1.00000000000000 ) );
#493 = DIRECTION( '', ( 1.00000000000000, 0.000000000000000, 0.000000000000000 ) );
#494 = CARTESIAN_POINT( '', ( -3.61274909422711E-019, 2.84955099313966E-032, -0.000216975567741442 ) );
#495 = DIRECTION( '', ( 8.38526780093755E-017, -5.13432611376516E-033, 1.00000000000000 ) );
#496 = DIRECTION( '', ( -1.00000000000000, 0.000000000000000, 8.38526780093755E-017 ) );
#497 = CARTESIAN_POINT( '', ( 8.88477111989957E-016, -2.59283468745140E-032, 10.5997830244323 ) );
#498 = DIRECTION( '', ( -8.38526780093755E-017, 5.13432611376516E-033, -1.00000000000000 ) );
#499 = DIRECTION( '', ( 1.00000000000000, 0.000000000000000, -8.38526780093755E-017 ) );
#500 = CARTESIAN_POINT( '', ( 4.15650640952650E-017, 2.59283468745140E-032, 0.499783024432259 ) );
#501 = DIRECTION( '', ( 8.38526780093753E-017, -5.13432611376516E-033, 1.00000000000000 ) );
#502 = DIRECTION( '', ( -1.00000000000000, 0.000000000000000, 8.38526780093753E-017 ) );
#503 = CARTESIAN_POINT( '', ( 7.35646653897199E-032, 1.20144183737250E-015, 12.5997830244323 ) );
#504 = DIRECTION( '', ( 0.000000000000000, 0.000000000000000, 1.00000000000000 ) );
#505 = DIRECTION( '', ( 1.00000000000000, 0.000000000000000, 0.000000000000000 ) );
#506 = CARTESIAN_POINT( '', ( 7.35646653897199E-032, 1.20144183737250E-015, 12.4330416619802 ) );
#507 = DIRECTION( '', ( 0.000000000000000, 0.000000000000000, 1.00000000000000 ) );
#508 = DIRECTION( '', ( 1.00000000000000, 0.000000000000000, 0.000000000000000 ) );
#509 = CARTESIAN_POINT( '', ( 7.35646653897199E-032, 1.20144183737250E-015, 5.79574701545227 ) );
#510 = DIRECTION( '', ( 0.000000000000000, 0.000000000000000, 1.00000000000000 ) );
#511 = DIRECTION( '', ( 1.00000000000000, 0.000000000000000, 0.000000000000000 ) );
#512 = CARTESIAN_POINT( '', ( 7.35646653897199E-032, 1.20144183737250E-015, 6.79978302443226 ) );
#513 = DIRECTION( '', ( 0.000000000000000, 0.000000000000000, 1.00000000000000 ) );
#514 = DIRECTION( '', ( 1.00000000000000, 0.000000000000000, 0.000000000000000 ) );
#515 = CARTESIAN_POINT( '', ( 9.30403450994645E-016, -2.84955099313966E-032, 11.0997830244323 ) );
#516 = DIRECTION( '', ( -8.38526780093755E-017, 5.13432611376516E-033, -1.00000000000000 ) );
#517 = DIRECTION( '', ( 1.00000000000000, 0.000000000000000, -8.38526780093755E-017 ) );
#518 = CARTESIAN_POINT( '', ( 9.30764725904068E-016, -5.69910198627932E-032, 11.0997830244323 ) );
#519 = DIRECTION( '', ( 8.38526780093755E-017, -5.13432611376516E-033, 1.00000000000000 ) );
#520 = DIRECTION( '', ( -1.00000000000000, 0.000000000000000, 8.38526780093755E-017 ) );
#521 = CARTESIAN_POINT( '', ( 7.35646653897199E-032, 1.20144183737250E-015, 0.204252984547043 ) );
#522 = DIRECTION( '', ( 0.000000000000000, 0.000000000000000, 1.00000000000000 ) );
#523 = DIRECTION( '', ( 1.00000000000000, 0.000000000000000, 0.000000000000000 ) );
ENDSEC;
END-ISO-10303-21;
