ISO-10303-21;
HEADER;
FILE_DESCRIPTION( ( 'Unknown' ), '1' );
FILE_NAME( 'E:/98-Dis_3D_per_controllo/MCF/6139040_MCF29x115_M12x15/6139040_MCF29x115_M12x15.stp', 'Unknown', ( 'Unknown' ), ( 'Unknown' ), 'PSStep 11.0', 'Unknown', '  ' );
FILE_SCHEMA( ( 'AUTOMOTIVE_DESIGN { 1 0 10303 214 1 1 1 1 }' ) );
ENDSEC;
DATA;
#1 = MECHANICAL_DESIGN_GEOMETRIC_PRESENTATION_REPRESENTATION( ' ', ( #10, #11, #12, #13, #14, #15, #16, #17, #18, #19, #20, #21, #22, #23, #24 ), #6 );
#2 = PRODUCT_DEFINITION_CONTEXT( '', #25, 'design' );
#3 = APPLICATION_PROTOCOL_DEFINITION( 'INTERNATIONAL STANDARD', 'automotive_design', 2001, #25 );
#4 = PRODUCT_CATEGORY_RELATIONSHIP( 'NONE', 'NONE', #26, #27 );
#5 = SHAPE_DEFINITION_REPRESENTATION( #28, #29 );
#6 =  ( GEOMETRIC_REPRESENTATION_CONTEXT( 3 )GLOBAL_UNCERTAINTY_ASSIGNED_CONTEXT( ( #32 ) )GLOBAL_UNIT_ASSIGNED_CONTEXT( ( #34, #35, #36 ) )REPRESENTATION_CONTEXT( 'NONE', 'WORKSPACE' ) );
#10 = STYLED_ITEM( '', ( #38 ), #39 );
#11 = STYLED_ITEM( '', ( #40 ), #41 );
#12 = STYLED_ITEM( '', ( #42 ), #43 );
#13 = STYLED_ITEM( '', ( #44 ), #45 );
#14 = STYLED_ITEM( '', ( #46 ), #47 );
#15 = STYLED_ITEM( '', ( #48 ), #49 );
#16 = STYLED_ITEM( '', ( #50 ), #51 );
#17 = STYLED_ITEM( '', ( #52 ), #53 );
#18 = STYLED_ITEM( '', ( #54 ), #55 );
#19 = STYLED_ITEM( '', ( #56 ), #57 );
#20 = STYLED_ITEM( '', ( #58 ), #59 );
#21 = STYLED_ITEM( '', ( #60 ), #61 );
#22 = STYLED_ITEM( '', ( #62 ), #63 );
#23 = STYLED_ITEM( '', ( #64 ), #65 );
#24 = STYLED_ITEM( '', ( #66 ), #67 );
#25 = APPLICATION_CONTEXT( 'core data for automotive mechanical design processes' );
#26 = PRODUCT_CATEGORY( 'part', 'NONE' );
#27 = PRODUCT_RELATED_PRODUCT_CATEGORY( 'detail', ' ', ( #68 ) );
#28 = PRODUCT_DEFINITION_SHAPE( 'NONE', 'NONE', #69 );
#29 = ADVANCED_BREP_SHAPE_REPRESENTATION( '8900234', ( #70, #71 ), #6 );
#32 = UNCERTAINTY_MEASURE_WITH_UNIT( LENGTH_MEASURE( 0.00100000000000000 ), #34, '', '' );
#34 =  ( CONVERSION_BASED_UNIT( 'MILLIMETRE', #74 )LENGTH_UNIT(  )NAMED_UNIT( #77 ) );
#35 =  ( NAMED_UNIT( #79 )PLANE_ANGLE_UNIT(  )SI_UNIT( $, .RADIAN. ) );
#36 =  ( NAMED_UNIT( #79 )SI_UNIT( $, .STERADIAN. )SOLID_ANGLE_UNIT(  ) );
#38 = PRESENTATION_STYLE_ASSIGNMENT( ( #85 ) );
#39 = ADVANCED_FACE( '', ( #86, #87 ), #88, .T. );
#40 = PRESENTATION_STYLE_ASSIGNMENT( ( #89 ) );
#41 = ADVANCED_FACE( '', ( #90, #91 ), #92, .T. );
#42 = PRESENTATION_STYLE_ASSIGNMENT( ( #93 ) );
#43 = ADVANCED_FACE( '', ( #94, #95 ), #96, .F. );
#44 = PRESENTATION_STYLE_ASSIGNMENT( ( #97 ) );
#45 = ADVANCED_FACE( '', ( #98, #99 ), #100, .T. );
#46 = PRESENTATION_STYLE_ASSIGNMENT( ( #101 ) );
#47 = ADVANCED_FACE( '', ( #102, #103 ), #104, .T. );
#48 = PRESENTATION_STYLE_ASSIGNMENT( ( #105 ) );
#49 = ADVANCED_FACE( '', ( #106, #107 ), #108, .T. );
#50 = PRESENTATION_STYLE_ASSIGNMENT( ( #109 ) );
#51 = ADVANCED_FACE( '', ( #110, #111 ), #112, .T. );
#52 = PRESENTATION_STYLE_ASSIGNMENT( ( #113 ) );
#53 = ADVANCED_FACE( '', ( #114, #115 ), #116, .T. );
#54 = PRESENTATION_STYLE_ASSIGNMENT( ( #117 ) );
#55 = ADVANCED_FACE( '', ( #118, #119 ), #120, .F. );
#56 = PRESENTATION_STYLE_ASSIGNMENT( ( #121 ) );
#57 = ADVANCED_FACE( '', ( #122, #123 ), #124, .F. );
#58 = PRESENTATION_STYLE_ASSIGNMENT( ( #125 ) );
#59 = ADVANCED_FACE( '', ( #126 ), #127, .T. );
#60 = PRESENTATION_STYLE_ASSIGNMENT( ( #128 ) );
#61 = ADVANCED_FACE( '', ( #129, #130 ), #131, .F. );
#62 = PRESENTATION_STYLE_ASSIGNMENT( ( #132 ) );
#63 = ADVANCED_FACE( '', ( #133 ), #134, .F. );
#64 = PRESENTATION_STYLE_ASSIGNMENT( ( #135 ) );
#65 = ADVANCED_FACE( '', ( #136, #137 ), #138, .T. );
#66 = PRESENTATION_STYLE_ASSIGNMENT( ( #139 ) );
#67 = ADVANCED_FACE( '', ( #140 ), #141, .F. );
#68 = PRODUCT( '8900234', '8900234', 'PART-8900234-DESC', ( #142 ) );
#69 = PRODUCT_DEFINITION( 'NONE', 'NONE', #143, #2 );
#70 = BREP_WITH_VOIDS( '8900234', #144, ( #145 ) );
#71 = AXIS2_PLACEMENT_3D( '', #146, #147, #148 );
#74 = LENGTH_MEASURE_WITH_UNIT( LENGTH_MEASURE( 1.00000000000000 ), #149 );
#77 = DIMENSIONAL_EXPONENTS( 1.00000000000000, 0.000000000000000, 0.000000000000000, 0.000000000000000, 0.000000000000000, 0.000000000000000, 0.000000000000000 );
#79 = DIMENSIONAL_EXPONENTS( 0.000000000000000, 0.000000000000000, 0.000000000000000, 0.000000000000000, 0.000000000000000, 0.000000000000000, 0.000000000000000 );
#85 = SURFACE_STYLE_USAGE( .BOTH., #150 );
#86 = FACE_OUTER_BOUND( '', #151, .T. );
#87 = FACE_OUTER_BOUND( '', #152, .T. );
#88 = TOROIDAL_SURFACE( '', #153, 12.4958861887828, 2.00000000000000 );
#89 = SURFACE_STYLE_USAGE( .BOTH., #154 );
#90 = FACE_OUTER_BOUND( '', #155, .T. );
#91 = FACE_OUTER_BOUND( '', #156, .T. );
#92 = CYLINDRICAL_SURFACE( '', #157, 6.00000000000000 );
#93 = SURFACE_STYLE_USAGE( .BOTH., #158 );
#94 = FACE_BOUND( '', #159, .T. );
#95 = FACE_OUTER_BOUND( '', #160, .T. );
#96 = PLANE( '', #161 );
#97 = SURFACE_STYLE_USAGE( .BOTH., #162 );
#98 = FACE_BOUND( '', #163, .T. );
#99 = FACE_OUTER_BOUND( '', #164, .T. );
#100 = CONICAL_SURFACE( '', #165, 6.00000000000000, 0.785398163397448 );
#101 = SURFACE_STYLE_USAGE( .BOTH., #166 );
#102 = FACE_OUTER_BOUND( '', #167, .T. );
#103 = FACE_OUTER_BOUND( '', #168, .T. );
#104 = TOROIDAL_SURFACE( '', #169, 10.3210893007139, 1.00000000000000 );
#105 = SURFACE_STYLE_USAGE( .BOTH., #170 );
#106 = FACE_OUTER_BOUND( '', #171, .T. );
#107 = FACE_BOUND( '', #172, .T. );
#108 = CONICAL_SURFACE( '', #173, 14.3500000000000, 0.00205479162865070 );
#109 = SURFACE_STYLE_USAGE( .BOTH., #174 );
#110 = FACE_BOUND( '', #175, .T. );
#111 = FACE_OUTER_BOUND( '', #176, .T. );
#112 = CONICAL_SURFACE( '', #177, 11.2500000000000, 0.0736759259292283 );
#113 = SURFACE_STYLE_USAGE( .BOTH., #178 );
#114 = FACE_OUTER_BOUND( '', #179, .T. );
#115 = FACE_OUTER_BOUND( '', #180, .T. );
#116 = TOROIDAL_SURFACE( '', #181, 6.55300000000000, 1.50000000000000 );
#117 = SURFACE_STYLE_USAGE( .BOTH., #182 );
#118 = FACE_OUTER_BOUND( '', #183, .T. );
#119 = FACE_OUTER_BOUND( '', #184, .T. );
#120 = CYLINDRICAL_SURFACE( '', #185, 5.05300000000000 );
#121 = SURFACE_STYLE_USAGE( .BOTH., #186 );
#122 = FACE_OUTER_BOUND( '', #187, .T. );
#123 = FACE_BOUND( '', #188, .T. );
#124 = CONICAL_SURFACE( '', #189, 5.05300000000000, 1.02974425867665 );
#125 = SURFACE_STYLE_USAGE( .BOTH., #190 );
#126 = FACE_OUTER_BOUND( '', #191, .T. );
#127 = PLANE( '', #192 );
#128 = SURFACE_STYLE_USAGE( .BOTH., #193 );
#129 = FACE_OUTER_BOUND( '', #194, .T. );
#130 = FACE_OUTER_BOUND( '', #195, .T. );
#131 = CYLINDRICAL_SURFACE( '', #196, 5.05300000000000 );
#132 = SURFACE_STYLE_USAGE( .BOTH., #197 );
#133 = FACE_OUTER_BOUND( '', #198, .T. );
#134 = PLANE( '', #199 );
#135 = SURFACE_STYLE_USAGE( .BOTH., #200 );
#136 = FACE_OUTER_BOUND( '', #201, .T. );
#137 = FACE_BOUND( '', #202, .T. );
#138 = CONICAL_SURFACE( '', #203, 5.00000000000000, 0.785398163397448 );
#139 = SURFACE_STYLE_USAGE( .BOTH., #204 );
#140 = FACE_OUTER_BOUND( '', #205, .T. );
#141 = PLANE( '', #206 );
#142 = PRODUCT_CONTEXT( '', #25, 'mechanical' );
#143 = PRODUCT_DEFINITION_FORMATION_WITH_SPECIFIED_SOURCE( ' ', 'NONE', #68, .NOT_KNOWN. );
#144 = CLOSED_SHELL( '', ( #43, #39, #67, #47, #49, #51, #53, #65, #59, #41 ) );
#145 = ORIENTED_CLOSED_SHELL( '', *, #207, .T. );
#146 = CARTESIAN_POINT( '', ( 0.000000000000000, 0.000000000000000, 0.000000000000000 ) );
#147 = DIRECTION( '', ( 0.000000000000000, 0.000000000000000, 1.00000000000000 ) );
#148 = DIRECTION( '', ( 1.00000000000000, 0.000000000000000, 0.000000000000000 ) );
#149 =  ( LENGTH_UNIT(  )NAMED_UNIT( #77 )SI_UNIT( .MILLI., .METRE. ) );
#150 = SURFACE_SIDE_STYLE( '', ( #209 ) );
#151 = EDGE_LOOP( '', ( #210 ) );
#152 = EDGE_LOOP( '', ( #211 ) );
#153 = AXIS2_PLACEMENT_3D( '', #212, #213, #214 );
#154 = SURFACE_SIDE_STYLE( '', ( #215 ) );
#155 = EDGE_LOOP( '', ( #216 ) );
#156 = EDGE_LOOP( '', ( #217 ) );
#157 = AXIS2_PLACEMENT_3D( '', #218, #219, #220 );
#158 = SURFACE_SIDE_STYLE( '', ( #221 ) );
#159 = EDGE_LOOP( '', ( #222 ) );
#160 = EDGE_LOOP( '', ( #223 ) );
#161 = AXIS2_PLACEMENT_3D( '', #224, #225, #226 );
#162 = SURFACE_SIDE_STYLE( '', ( #227 ) );
#163 = EDGE_LOOP( '', ( #228 ) );
#164 = EDGE_LOOP( '', ( #229 ) );
#165 = AXIS2_PLACEMENT_3D( '', #230, #231, #232 );
#166 = SURFACE_SIDE_STYLE( '', ( #233 ) );
#167 = EDGE_LOOP( '', ( #234 ) );
#168 = EDGE_LOOP( '', ( #235 ) );
#169 = AXIS2_PLACEMENT_3D( '', #236, #237, #238 );
#170 = SURFACE_SIDE_STYLE( '', ( #239 ) );
#171 = EDGE_LOOP( '', ( #240 ) );
#172 = EDGE_LOOP( '', ( #241 ) );
#173 = AXIS2_PLACEMENT_3D( '', #242, #243, #244 );
#174 = SURFACE_SIDE_STYLE( '', ( #245 ) );
#175 = EDGE_LOOP( '', ( #246 ) );
#176 = EDGE_LOOP( '', ( #247 ) );
#177 = AXIS2_PLACEMENT_3D( '', #248, #249, #250 );
#178 = SURFACE_SIDE_STYLE( '', ( #251 ) );
#179 = EDGE_LOOP( '', ( #252 ) );
#180 = EDGE_LOOP( '', ( #253 ) );
#181 = AXIS2_PLACEMENT_3D( '', #254, #255, #256 );
#182 = SURFACE_SIDE_STYLE( '', ( #257 ) );
#183 = EDGE_LOOP( '', ( #258 ) );
#184 = EDGE_LOOP( '', ( #259 ) );
#185 = AXIS2_PLACEMENT_3D( '', #260, #261, #262 );
#186 = SURFACE_SIDE_STYLE( '', ( #263 ) );
#187 = EDGE_LOOP( '', ( #264 ) );
#188 = VERTEX_LOOP( '', #265 );
#189 = AXIS2_PLACEMENT_3D( '', #266, #267, #268 );
#190 = SURFACE_SIDE_STYLE( '', ( #269 ) );
#191 = EDGE_LOOP( '', ( #270 ) );
#192 = AXIS2_PLACEMENT_3D( '', #271, #272, #273 );
#193 = SURFACE_SIDE_STYLE( '', ( #274 ) );
#194 = EDGE_LOOP( '', ( #275 ) );
#195 = EDGE_LOOP( '', ( #276 ) );
#196 = AXIS2_PLACEMENT_3D( '', #277, #278, #279 );
#197 = SURFACE_SIDE_STYLE( '', ( #280 ) );
#198 = EDGE_LOOP( '', ( #281 ) );
#199 = AXIS2_PLACEMENT_3D( '', #282, #283, #284 );
#200 = SURFACE_SIDE_STYLE( '', ( #285 ) );
#201 = EDGE_LOOP( '', ( #286 ) );
#202 = EDGE_LOOP( '', ( #287 ) );
#203 = AXIS2_PLACEMENT_3D( '', #288, #289, #290 );
#204 = SURFACE_SIDE_STYLE( '', ( #291 ) );
#205 = EDGE_LOOP( '', ( #292 ) );
#206 = AXIS2_PLACEMENT_3D( '', #293, #294, #295 );
#207 = CLOSED_SHELL( '', ( #57, #61, #55, #45, #63 ) );
#209 = SURFACE_STYLE_FILL_AREA( #296 );
#210 = ORIENTED_EDGE( '', *, *, #297, .F. );
#211 = ORIENTED_EDGE( '', *, *, #298, .F. );
#212 = CARTESIAN_POINT( '', ( 1.23775379339770E-014, 0.000000000000000, 55.5000000000000 ) );
#213 = DIRECTION( '', ( 0.000000000000000, 0.000000000000000, -1.00000000000000 ) );
#214 = DIRECTION( '', ( -1.00000000000000, 0.000000000000000, 0.000000000000000 ) );
#215 = SURFACE_STYLE_FILL_AREA( #299 );
#216 = ORIENTED_EDGE( '', *, *, #300, .T. );
#217 = ORIENTED_EDGE( '', *, *, #301, .T. );
#218 = CARTESIAN_POINT( '', ( 2.66388473779688E-015, 8.32667268468867E-016, -32.5000000000000 ) );
#219 = DIRECTION( '', ( -0.000000000000000, -0.000000000000000, 1.00000000000000 ) );
#220 = DIRECTION( '', ( -1.00000000000000, 0.000000000000000, 0.000000000000000 ) );
#221 = SURFACE_STYLE_FILL_AREA( #302 );
#222 = ORIENTED_EDGE( '', *, *, #303, .T. );
#223 = ORIENTED_EDGE( '', *, *, #304, .T. );
#224 = CARTESIAN_POINT( '', ( 1.23775379339770E-014, 0.000000000000000, -57.5000000000000 ) );
#225 = DIRECTION( '', ( 0.000000000000000, 0.000000000000000, 1.00000000000000 ) );
#226 = DIRECTION( '', ( 1.00000000000000, 0.000000000000000, 0.000000000000000 ) );
#227 = SURFACE_STYLE_FILL_AREA( #305 );
#228 = ORIENTED_EDGE( '', *, *, #306, .F. );
#229 = ORIENTED_EDGE( '', *, *, #307, .F. );
#230 = CARTESIAN_POINT( '', ( 2.66388473779688E-015, 8.32667268468867E-016, -33.5000000000000 ) );
#231 = DIRECTION( '', ( -0.000000000000000, 0.000000000000000, -1.00000000000000 ) );
#232 = DIRECTION( '', ( -1.00000000000000, 0.000000000000000, 0.000000000000000 ) );
#233 = SURFACE_STYLE_FILL_AREA( #308 );
#234 = ORIENTED_EDGE( '', *, *, #304, .F. );
#235 = ORIENTED_EDGE( '', *, *, #309, .F. );
#236 = CARTESIAN_POINT( '', ( 1.23775379339770E-014, 0.000000000000000, -56.5000000000000 ) );
#237 = DIRECTION( '', ( 0.000000000000000, 0.000000000000000, 1.00000000000000 ) );
#238 = DIRECTION( '', ( 1.00000000000000, 0.000000000000000, 0.000000000000000 ) );
#239 = SURFACE_STYLE_FILL_AREA( #310 );
#240 = ORIENTED_EDGE( '', *, *, #297, .T. );
#241 = ORIENTED_EDGE( '', *, *, #311, .T. );
#242 = CARTESIAN_POINT( '', ( 1.23775379339770E-014, 0.000000000000000, -15.5000000000000 ) );
#243 = DIRECTION( '', ( -0.000000000000000, -0.000000000000000, 1.00000000000000 ) );
#244 = DIRECTION( '', ( 1.00000000000000, 0.000000000000000, 0.000000000000000 ) );
#245 = SURFACE_STYLE_FILL_AREA( #312 );
#246 = ORIENTED_EDGE( '', *, *, #309, .T. );
#247 = ORIENTED_EDGE( '', *, *, #311, .F. );
#248 = CARTESIAN_POINT( '', ( 1.23775379339770E-014, 0.000000000000000, -57.5000000000000 ) );
#249 = DIRECTION( '', ( -0.000000000000000, -0.000000000000000, 1.00000000000000 ) );
#250 = DIRECTION( '', ( 1.00000000000000, 0.000000000000000, 0.000000000000000 ) );
#251 = SURFACE_STYLE_FILL_AREA( #313 );
#252 = ORIENTED_EDGE( '', *, *, #300, .F. );
#253 = ORIENTED_EDGE( '', *, *, #303, .F. );
#254 = CARTESIAN_POINT( '', ( 3.49655200626575E-015, 0.000000000000000, -56.0000000000000 ) );
#255 = DIRECTION( '', ( 0.000000000000000, 0.000000000000000, 1.00000000000000 ) );
#256 = DIRECTION( '', ( 1.00000000000000, 0.000000000000000, 0.000000000000000 ) );
#257 = SURFACE_STYLE_FILL_AREA( #314 );
#258 = ORIENTED_EDGE( '', *, *, #307, .T. );
#259 = ORIENTED_EDGE( '', *, *, #315, .F. );
#260 = CARTESIAN_POINT( '', ( 3.49655200626575E-015, 0.000000000000000, -57.5000000000000 ) );
#261 = DIRECTION( '', ( -0.000000000000000, 0.000000000000000, -1.00000000000000 ) );
#262 = DIRECTION( '', ( 0.000000000000000, 1.00000000000000, 0.000000000000000 ) );
#263 = SURFACE_STYLE_FILL_AREA( #316 );
#264 = ORIENTED_EDGE( '', *, *, #317, .F. );
#265 = VERTEX_POINT( '', #318 );
#266 = CARTESIAN_POINT( '', ( 3.49655200626575E-015, 0.000000000000000, -7.50000000000000 ) );
#267 = DIRECTION( '', ( 0.000000000000000, -0.000000000000000, -1.00000000000000 ) );
#268 = DIRECTION( '', ( 0.000000000000000, -1.00000000000000, 0.000000000000000 ) );
#269 = SURFACE_STYLE_FILL_AREA( #319 );
#270 = ORIENTED_EDGE( '', *, *, #320, .T. );
#271 = CARTESIAN_POINT( '', ( 2.66388473779688E-015, 8.32667268468867E-016, -72.5000000000000 ) );
#272 = DIRECTION( '', ( 0.000000000000000, 0.000000000000000, -1.00000000000000 ) );
#273 = DIRECTION( '', ( -1.00000000000000, 0.000000000000000, 0.000000000000000 ) );
#274 = SURFACE_STYLE_FILL_AREA( #321 );
#275 = ORIENTED_EDGE( '', *, *, #317, .T. );
#276 = ORIENTED_EDGE( '', *, *, #315, .T. );
#277 = CARTESIAN_POINT( '', ( 3.49655200626575E-015, 0.000000000000000, -57.5000000000000 ) );
#278 = DIRECTION( '', ( -0.000000000000000, 0.000000000000000, -1.00000000000000 ) );
#279 = DIRECTION( '', ( 0.000000000000000, 1.00000000000000, 0.000000000000000 ) );
#280 = SURFACE_STYLE_FILL_AREA( #322 );
#281 = ORIENTED_EDGE( '', *, *, #306, .T. );
#282 = CARTESIAN_POINT( '', ( 2.66388473779688E-015, 8.32667268468867E-016, -32.5000000000000 ) );
#283 = DIRECTION( '', ( 0.000000000000000, 0.000000000000000, -1.00000000000000 ) );
#284 = DIRECTION( '', ( -1.00000000000000, 0.000000000000000, 0.000000000000000 ) );
#285 = SURFACE_STYLE_FILL_AREA( #323 );
#286 = ORIENTED_EDGE( '', *, *, #301, .F. );
#287 = ORIENTED_EDGE( '', *, *, #320, .F. );
#288 = CARTESIAN_POINT( '', ( 2.66388473779688E-015, 8.32667268468867E-016, -72.5000000000000 ) );
#289 = DIRECTION( '', ( -0.000000000000000, -0.000000000000000, 1.00000000000000 ) );
#290 = DIRECTION( '', ( 1.00000000000000, 0.000000000000000, 0.000000000000000 ) );
#291 = SURFACE_STYLE_FILL_AREA( #324 );
#292 = ORIENTED_EDGE( '', *, *, #298, .T. );
#293 = CARTESIAN_POINT( '', ( 14.5000000000000, 0.000000000000000, 57.5000000000000 ) );
#294 = DIRECTION( '', ( 0.000000000000000, 0.000000000000000, -1.00000000000000 ) );
#295 = DIRECTION( '', ( -1.00000000000000, 0.000000000000000, 0.000000000000000 ) );
#296 = FILL_AREA_STYLE( '', ( #325 ) );
#297 = EDGE_CURVE( '', #326, #326, #327, .T. );
#298 = EDGE_CURVE( '', #328, #328, #329, .F. );
#299 = FILL_AREA_STYLE( '', ( #330 ) );
#300 = EDGE_CURVE( '', #331, #331, #332, .F. );
#301 = EDGE_CURVE( '', #333, #333, #334, .F. );
#302 = FILL_AREA_STYLE( '', ( #335 ) );
#303 = EDGE_CURVE( '', #336, #336, #337, .T. );
#304 = EDGE_CURVE( '', #338, #338, #339, .F. );
#305 = FILL_AREA_STYLE( '', ( #340 ) );
#306 = EDGE_CURVE( '', #341, #341, #342, .F. );
#307 = EDGE_CURVE( '', #343, #343, #344, .T. );
#308 = FILL_AREA_STYLE( '', ( #345 ) );
#309 = EDGE_CURVE( '', #346, #346, #347, .F. );
#310 = FILL_AREA_STYLE( '', ( #348 ) );
#311 = EDGE_CURVE( '', #349, #349, #350, .T. );
#312 = FILL_AREA_STYLE( '', ( #351 ) );
#313 = FILL_AREA_STYLE( '', ( #352 ) );
#314 = FILL_AREA_STYLE( '', ( #353 ) );
#315 = EDGE_CURVE( '', #354, #354, #355, .T. );
#316 = FILL_AREA_STYLE( '', ( #356 ) );
#317 = EDGE_CURVE( '', #357, #357, #358, .T. );
#318 = CARTESIAN_POINT( '', ( 3.49655200626575E-015, 0.000000000000000, -4.46385129205374 ) );
#319 = FILL_AREA_STYLE( '', ( #359 ) );
#320 = EDGE_CURVE( '', #360, #360, #361, .T. );
#321 = FILL_AREA_STYLE( '', ( #362 ) );
#322 = FILL_AREA_STYLE( '', ( #363 ) );
#323 = FILL_AREA_STYLE( '', ( #364 ) );
#324 = FILL_AREA_STYLE( '', ( #365 ) );
#325 = FILL_AREA_STYLE_COLOUR( '', #366 );
#326 = VERTEX_POINT( '', #367 );
#327 = CIRCLE( '', #368, 14.4958819666157 );
#328 = VERTEX_POINT( '', #369 );
#329 = CIRCLE( '', #370, 12.4958861887828 );
#330 = FILL_AREA_STYLE_COLOUR( '', #371 );
#331 = VERTEX_POINT( '', #372 );
#332 = CIRCLE( '', #373, 6.00000000000000 );
#333 = VERTEX_POINT( '', #374 );
#334 = CIRCLE( '', #375, 6.00000000000000 );
#335 = FILL_AREA_STYLE_COLOUR( '', #376 );
#336 = VERTEX_POINT( '', #377 );
#337 = CIRCLE( '', #378, 6.55300000000000 );
#338 = VERTEX_POINT( '', #379 );
#339 = CIRCLE( '', #380, 10.3210893007139 );
#340 = FILL_AREA_STYLE_COLOUR( '', #381 );
#341 = VERTEX_POINT( '', #382 );
#342 = CIRCLE( '', #383, 5.00000000000000 );
#343 = VERTEX_POINT( '', #384 );
#344 = CIRCLE( '', #385, 5.05300000000000 );
#345 = FILL_AREA_STYLE_COLOUR( '', #386 );
#346 = VERTEX_POINT( '', #387 );
#347 = CIRCLE( '', #388, 11.3183764571579 );
#348 = FILL_AREA_STYLE_COLOUR( '', #389 );
#349 = VERTEX_POINT( '', #390 );
#350 = CIRCLE( '', #391, 14.3500000000000 );
#351 = FILL_AREA_STYLE_COLOUR( '', #392 );
#352 = FILL_AREA_STYLE_COLOUR( '', #393 );
#353 = FILL_AREA_STYLE_COLOUR( '', #394 );
#354 = VERTEX_POINT( '', #395 );
#355 = CIRCLE( '', #396, 5.05300000000000 );
#356 = FILL_AREA_STYLE_COLOUR( '', #397 );
#357 = VERTEX_POINT( '', #398 );
#358 = CIRCLE( '', #399, 5.05300000000000 );
#359 = FILL_AREA_STYLE_COLOUR( '', #400 );
#360 = VERTEX_POINT( '', #401 );
#361 = CIRCLE( '', #402, 5.00000000000000 );
#362 = FILL_AREA_STYLE_COLOUR( '', #403 );
#363 = FILL_AREA_STYLE_COLOUR( '', #404 );
#364 = FILL_AREA_STYLE_COLOUR( '', #405 );
#365 = FILL_AREA_STYLE_COLOUR( '', #406 );
#366 = COLOUR_RGB( '', 0.200000002980232, 0.200000002980232, 0.200000002980232 );
#367 = CARTESIAN_POINT( '', ( -14.4958819666157, 0.000000000000000, 55.4958904196345 ) );
#368 = AXIS2_PLACEMENT_3D( '', #407, #408, #409 );
#369 = CARTESIAN_POINT( '', ( -12.4958861887828, 0.000000000000000, 57.5000000000000 ) );
#370 = AXIS2_PLACEMENT_3D( '', #410, #411, #412 );
#371 = COLOUR_RGB( '', 0.752941191196442, 0.752941191196442, 0.752941191196442 );
#372 = CARTESIAN_POINT( '', ( 6.00000000000000, 0.000000000000000, -57.3943424973800 ) );
#373 = AXIS2_PLACEMENT_3D( '', #413, #414, #415 );
#374 = CARTESIAN_POINT( '', ( -6.00000000000000, 8.32667268468867E-016, -71.5000000000000 ) );
#375 = AXIS2_PLACEMENT_3D( '', #416, #417, #418 );
#376 = COLOUR_RGB( '', 0.200000002980232, 0.200000002980232, 0.200000002980232 );
#377 = CARTESIAN_POINT( '', ( 6.55300000000000, 0.000000000000000, -57.5000000000000 ) );
#378 = AXIS2_PLACEMENT_3D( '', #419, #420, #421 );
#379 = CARTESIAN_POINT( '', ( 10.3210893007139, 0.000000000000000, -57.5000000000000 ) );
#380 = AXIS2_PLACEMENT_3D( '', #422, #423, #424 );
#381 = COLOUR_RGB( '', 0.666666686534882, 0.733333349227905, 0.866666674613953 );
#382 = CARTESIAN_POINT( '', ( -5.00000000000000, 8.32667268468867E-016, -32.5000000000000 ) );
#383 = AXIS2_PLACEMENT_3D( '', #425, #426, #427 );
#384 = CARTESIAN_POINT( '', ( -5.05300000000000, 8.32667268468867E-016, -32.5530000000000 ) );
#385 = AXIS2_PLACEMENT_3D( '', #428, #429, #430 );
#386 = COLOUR_RGB( '', 0.200000002980232, 0.200000002980232, 0.200000002980232 );
#387 = CARTESIAN_POINT( '', ( -11.3183764571579, 0.000000000000000, -56.5736092901185 ) );
#388 = AXIS2_PLACEMENT_3D( '', #431, #432, #433 );
#389 = COLOUR_RGB( '', 0.200000002980232, 0.200000002980232, 0.200000002980232 );
#390 = CARTESIAN_POINT( '', ( 14.3500000000000, 0.000000000000000, -15.5000000000000 ) );
#391 = AXIS2_PLACEMENT_3D( '', #434, #435, #436 );
#392 = COLOUR_RGB( '', 0.200000002980232, 0.200000002980232, 0.200000002980232 );
#393 = COLOUR_RGB( '', 0.200000002980232, 0.200000002980232, 0.200000002980232 );
#394 = COLOUR_RGB( '', 0.752941191196442, 0.752941191196442, 0.752941191196442 );
#395 = CARTESIAN_POINT( '', ( 3.49655200626575E-015, 5.05300000000000, -17.5000000000000 ) );
#396 = AXIS2_PLACEMENT_3D( '', #437, #438, #439 );
#397 = COLOUR_RGB( '', 0.200000002980232, 0.200000002980232, 0.200000002980232 );
#398 = CARTESIAN_POINT( '', ( 3.49655200626575E-015, -5.05300000000000, -7.50000000000000 ) );
#399 = AXIS2_PLACEMENT_3D( '', #440, #441, #442 );
#400 = COLOUR_RGB( '', 0.666666686534882, 0.733333349227905, 0.866666674613953 );
#401 = CARTESIAN_POINT( '', ( -5.00000000000000, 8.32667268468867E-016, -72.5000000000000 ) );
#402 = AXIS2_PLACEMENT_3D( '', #443, #444, #445 );
#403 = COLOUR_RGB( '', 0.200000002980232, 0.200000002980232, 0.200000002980232 );
#404 = COLOUR_RGB( '', 0.666666686534882, 0.733333349227905, 0.866666674613953 );
#405 = COLOUR_RGB( '', 0.666666686534882, 0.733333349227905, 0.866666674613953 );
#406 = COLOUR_RGB( '', 0.200000002980232, 0.200000002980232, 0.200000002980232 );
#407 = CARTESIAN_POINT( '', ( 1.23775379339770E-014, 0.000000000000000, 55.4958904196345 ) );
#408 = DIRECTION( '', ( 0.000000000000000, 0.000000000000000, -1.00000000000000 ) );
#409 = DIRECTION( '', ( -1.00000000000000, 0.000000000000000, 0.000000000000000 ) );
#410 = CARTESIAN_POINT( '', ( 1.23775379339770E-014, 0.000000000000000, 57.5000000000000 ) );
#411 = DIRECTION( '', ( 0.000000000000000, 0.000000000000000, -1.00000000000000 ) );
#412 = DIRECTION( '', ( -1.00000000000000, 0.000000000000000, 0.000000000000000 ) );
#413 = CARTESIAN_POINT( '', ( 3.49655200626575E-015, 0.000000000000000, -57.3943424973800 ) );
#414 = DIRECTION( '', ( 0.000000000000000, 0.000000000000000, 1.00000000000000 ) );
#415 = DIRECTION( '', ( 1.00000000000000, 0.000000000000000, 0.000000000000000 ) );
#416 = CARTESIAN_POINT( '', ( 2.66388473779688E-015, 8.32667268468867E-016, -71.5000000000000 ) );
#417 = DIRECTION( '', ( 0.000000000000000, 0.000000000000000, -1.00000000000000 ) );
#418 = DIRECTION( '', ( -1.00000000000000, 0.000000000000000, 0.000000000000000 ) );
#419 = CARTESIAN_POINT( '', ( 3.49655200626575E-015, 0.000000000000000, -57.5000000000000 ) );
#420 = DIRECTION( '', ( 0.000000000000000, 0.000000000000000, 1.00000000000000 ) );
#421 = DIRECTION( '', ( 1.00000000000000, 0.000000000000000, 0.000000000000000 ) );
#422 = CARTESIAN_POINT( '', ( 1.23775379339770E-014, 0.000000000000000, -57.5000000000000 ) );
#423 = DIRECTION( '', ( 0.000000000000000, 0.000000000000000, 1.00000000000000 ) );
#424 = DIRECTION( '', ( 1.00000000000000, 0.000000000000000, 0.000000000000000 ) );
#425 = CARTESIAN_POINT( '', ( 2.66388473779688E-015, 8.32667268468867E-016, -32.5000000000000 ) );
#426 = DIRECTION( '', ( 0.000000000000000, 0.000000000000000, -1.00000000000000 ) );
#427 = DIRECTION( '', ( -1.00000000000000, 0.000000000000000, 0.000000000000000 ) );
#428 = CARTESIAN_POINT( '', ( 2.66388473779688E-015, 8.32667268468867E-016, -32.5530000000000 ) );
#429 = DIRECTION( '', ( 0.000000000000000, 0.000000000000000, -1.00000000000000 ) );
#430 = DIRECTION( '', ( -1.00000000000000, 0.000000000000000, 0.000000000000000 ) );
#431 = CARTESIAN_POINT( '', ( 1.23775379339770E-014, 0.000000000000000, -56.5736092901185 ) );
#432 = DIRECTION( '', ( 0.000000000000000, 0.000000000000000, -1.00000000000000 ) );
#433 = DIRECTION( '', ( -1.00000000000000, 0.000000000000000, 0.000000000000000 ) );
#434 = CARTESIAN_POINT( '', ( 1.23775379339770E-014, 0.000000000000000, -15.5000000000000 ) );
#435 = DIRECTION( '', ( 0.000000000000000, 0.000000000000000, 1.00000000000000 ) );
#436 = DIRECTION( '', ( 1.00000000000000, 0.000000000000000, 0.000000000000000 ) );
#437 = CARTESIAN_POINT( '', ( 3.49655200626575E-015, 0.000000000000000, -17.5000000000000 ) );
#438 = DIRECTION( '', ( 0.000000000000000, 0.000000000000000, -1.00000000000000 ) );
#439 = DIRECTION( '', ( 0.000000000000000, 1.00000000000000, 0.000000000000000 ) );
#440 = CARTESIAN_POINT( '', ( 3.49655200626575E-015, 0.000000000000000, -7.50000000000000 ) );
#441 = DIRECTION( '', ( 0.000000000000000, 0.000000000000000, 1.00000000000000 ) );
#442 = DIRECTION( '', ( 0.000000000000000, -1.00000000000000, 0.000000000000000 ) );
#443 = CARTESIAN_POINT( '', ( 2.66388473779688E-015, 8.32667268468867E-016, -72.5000000000000 ) );
#444 = DIRECTION( '', ( 0.000000000000000, 0.000000000000000, -1.00000000000000 ) );
#445 = DIRECTION( '', ( -1.00000000000000, 0.000000000000000, 0.000000000000000 ) );
ENDSEC;
END-ISO-10303-21;
