ISO-10303-21;
HEADER;
FILE_DESCRIPTION( ( 'Unknown' ), '1' );
FILE_NAME( 'E:/98-Dis_3D_per_controllo/MCF/6139035_MCF29x115_M10x15/6139035_MCF29x115_M10x15.stp', 'Unknown', ( 'Unknown' ), ( 'Unknown' ), 'PSStep 11.0', 'Unknown', '  ' );
FILE_SCHEMA( ( 'AUTOMOTIVE_DESIGN { 1 0 10303 214 1 1 1 1 }' ) );
ENDSEC;
DATA;
#1 = MECHANICAL_DESIGN_GEOMETRIC_PRESENTATION_REPRESENTATION( ' ', ( #10, #11, #12, #13, #14, #15, #16, #17, #18, #19, #20, #21, #22, #23, #24 ), #6 );
#2 = PRODUCT_DEFINITION_CONTEXT( '', #25, 'design' );
#3 = APPLICATION_PROTOCOL_DEFINITION( 'INTERNATIONAL STANDARD', 'automotive_design', 2001, #25 );
#4 = PRODUCT_CATEGORY_RELATIONSHIP( 'NONE', 'NONE', #26, #27 );
#5 = SHAPE_DEFINITION_REPRESENTATION( #28, #29 );
#6 =  ( GEOMETRIC_REPRESENTATION_CONTEXT( 3 )GLOBAL_UNCERTAINTY_ASSIGNED_CONTEXT( ( #32 ) )GLOBAL_UNIT_ASSIGNED_CONTEXT( ( #34, #35, #36 ) )REPRESENTATION_CONTEXT( 'NONE', 'WORKSPACE' ) );
#10 = STYLED_ITEM( '', ( #38 ), #39 );
#11 = STYLED_ITEM( '', ( #40 ), #41 );
#12 = STYLED_ITEM( '', ( #42 ), #43 );
#13 = STYLED_ITEM( '', ( #44 ), #45 );
#14 = STYLED_ITEM( '', ( #46 ), #47 );
#15 = STYLED_ITEM( '', ( #48 ), #49 );
#16 = STYLED_ITEM( '', ( #50 ), #51 );
#17 = STYLED_ITEM( '', ( #52 ), #53 );
#18 = STYLED_ITEM( '', ( #54 ), #55 );
#19 = STYLED_ITEM( '', ( #56 ), #57 );
#20 = STYLED_ITEM( '', ( #58 ), #59 );
#21 = STYLED_ITEM( '', ( #60 ), #61 );
#22 = STYLED_ITEM( '', ( #62 ), #63 );
#23 = STYLED_ITEM( '', ( #64 ), #65 );
#24 = STYLED_ITEM( '', ( #66 ), #67 );
#25 = APPLICATION_CONTEXT( 'core data for automotive mechanical design processes' );
#26 = PRODUCT_CATEGORY( 'part', 'NONE' );
#27 = PRODUCT_RELATED_PRODUCT_CATEGORY( 'detail', ' ', ( #68 ) );
#28 = PRODUCT_DEFINITION_SHAPE( 'NONE', 'NONE', #69 );
#29 = ADVANCED_BREP_SHAPE_REPRESENTATION( '6136055_MC29x115', ( #70, #71 ), #6 );
#32 = UNCERTAINTY_MEASURE_WITH_UNIT( LENGTH_MEASURE( 0.00100000000000000 ), #34, '', '' );
#34 =  ( CONVERSION_BASED_UNIT( 'MILLIMETRE', #74 )LENGTH_UNIT(  )NAMED_UNIT( #77 ) );
#35 =  ( NAMED_UNIT( #79 )PLANE_ANGLE_UNIT(  )SI_UNIT( $, .RADIAN. ) );
#36 =  ( NAMED_UNIT( #79 )SI_UNIT( $, .STERADIAN. )SOLID_ANGLE_UNIT(  ) );
#38 = PRESENTATION_STYLE_ASSIGNMENT( ( #85 ) );
#39 = ADVANCED_FACE( '', ( #86, #87 ), #88, .T. );
#40 = PRESENTATION_STYLE_ASSIGNMENT( ( #89 ) );
#41 = ADVANCED_FACE( '', ( #90 ), #91, .F. );
#42 = PRESENTATION_STYLE_ASSIGNMENT( ( #92 ) );
#43 = ADVANCED_FACE( '', ( #93, #94 ), #95, .F. );
#44 = PRESENTATION_STYLE_ASSIGNMENT( ( #96 ) );
#45 = ADVANCED_FACE( '', ( #97 ), #98, .T. );
#46 = PRESENTATION_STYLE_ASSIGNMENT( ( #99 ) );
#47 = ADVANCED_FACE( '', ( #100, #101 ), #102, .F. );
#48 = PRESENTATION_STYLE_ASSIGNMENT( ( #103 ) );
#49 = ADVANCED_FACE( '', ( #104, #105 ), #106, .T. );
#50 = PRESENTATION_STYLE_ASSIGNMENT( ( #107 ) );
#51 = ADVANCED_FACE( '', ( #108 ), #109, .F. );
#52 = PRESENTATION_STYLE_ASSIGNMENT( ( #110 ) );
#53 = ADVANCED_FACE( '', ( #111, #112 ), #113, .T. );
#54 = PRESENTATION_STYLE_ASSIGNMENT( ( #114 ) );
#55 = ADVANCED_FACE( '', ( #115, #116 ), #117, .T. );
#56 = PRESENTATION_STYLE_ASSIGNMENT( ( #118 ) );
#57 = ADVANCED_FACE( '', ( #119, #120 ), #121, .T. );
#58 = PRESENTATION_STYLE_ASSIGNMENT( ( #122 ) );
#59 = ADVANCED_FACE( '', ( #123, #124 ), #125, .T. );
#60 = PRESENTATION_STYLE_ASSIGNMENT( ( #126 ) );
#61 = ADVANCED_FACE( '', ( #127, #128 ), #129, .T. );
#62 = PRESENTATION_STYLE_ASSIGNMENT( ( #130 ) );
#63 = ADVANCED_FACE( '', ( #131, #132 ), #133, .T. );
#64 = PRESENTATION_STYLE_ASSIGNMENT( ( #134 ) );
#65 = ADVANCED_FACE( '', ( #135, #136 ), #137, .F. );
#66 = PRESENTATION_STYLE_ASSIGNMENT( ( #138 ) );
#67 = ADVANCED_FACE( '', ( #139, #140 ), #141, .F. );
#68 = PRODUCT( '6136055_MC29x115', '6136055_MC29x115', 'PART-6136055_MC29x115-DESC', ( #142 ) );
#69 = PRODUCT_DEFINITION( 'NONE', 'NONE', #143, #2 );
#70 = BREP_WITH_VOIDS( '6136055_MC29x115', #144, ( #145 ) );
#71 = AXIS2_PLACEMENT_3D( '', #146, #147, #148 );
#74 = LENGTH_MEASURE_WITH_UNIT( LENGTH_MEASURE( 1.00000000000000 ), #149 );
#77 = DIMENSIONAL_EXPONENTS( 1.00000000000000, 0.000000000000000, 0.000000000000000, 0.000000000000000, 0.000000000000000, 0.000000000000000, 0.000000000000000 );
#79 = DIMENSIONAL_EXPONENTS( 0.000000000000000, 0.000000000000000, 0.000000000000000, 0.000000000000000, 0.000000000000000, 0.000000000000000, 0.000000000000000 );
#85 = SURFACE_STYLE_USAGE( .BOTH., #150 );
#86 = FACE_OUTER_BOUND( '', #151, .T. );
#87 = FACE_BOUND( '', #152, .T. );
#88 = CONICAL_SURFACE( '', #153, 4.00000000000000, 0.785398163397448 );
#89 = SURFACE_STYLE_USAGE( .BOTH., #154 );
#90 = FACE_OUTER_BOUND( '', #155, .T. );
#91 = PLANE( '', #156 );
#92 = SURFACE_STYLE_USAGE( .BOTH., #157 );
#93 = FACE_BOUND( '', #158, .T. );
#94 = FACE_OUTER_BOUND( '', #159, .T. );
#95 = PLANE( '', #160 );
#96 = SURFACE_STYLE_USAGE( .BOTH., #161 );
#97 = FACE_OUTER_BOUND( '', #162, .T. );
#98 = PLANE( '', #163 );
#99 = SURFACE_STYLE_USAGE( .BOTH., #164 );
#100 = FACE_OUTER_BOUND( '', #165, .T. );
#101 = FACE_BOUND( '', #166, .T. );
#102 = CONICAL_SURFACE( '', #167, 4.18800000000000, 1.02974425867665 );
#103 = SURFACE_STYLE_USAGE( .BOTH., #168 );
#104 = FACE_BOUND( '', #169, .T. );
#105 = FACE_OUTER_BOUND( '', #170, .T. );
#106 = CONICAL_SURFACE( '', #171, 11.2500000000000, 0.0736759259292283 );
#107 = SURFACE_STYLE_USAGE( .BOTH., #172 );
#108 = FACE_OUTER_BOUND( '', #173, .T. );
#109 = PLANE( '', #174 );
#110 = SURFACE_STYLE_USAGE( .BOTH., #175 );
#111 = FACE_OUTER_BOUND( '', #176, .T. );
#112 = FACE_BOUND( '', #177, .T. );
#113 = CONICAL_SURFACE( '', #178, 14.3500000000000, 0.00205479162865070 );
#114 = SURFACE_STYLE_USAGE( .BOTH., #179 );
#115 = FACE_OUTER_BOUND( '', #180, .T. );
#116 = FACE_OUTER_BOUND( '', #181, .T. );
#117 = TOROIDAL_SURFACE( '', #182, 5.68800000000000, 1.50000000000000 );
#118 = SURFACE_STYLE_USAGE( .BOTH., #183 );
#119 = FACE_OUTER_BOUND( '', #184, .T. );
#120 = FACE_OUTER_BOUND( '', #185, .T. );
#121 = TOROIDAL_SURFACE( '', #186, 10.3210893007139, 1.00000000000000 );
#122 = SURFACE_STYLE_USAGE( .BOTH., #187 );
#123 = FACE_OUTER_BOUND( '', #188, .T. );
#124 = FACE_OUTER_BOUND( '', #189, .T. );
#125 = TOROIDAL_SURFACE( '', #190, 12.4958861887828, 2.00000000000000 );
#126 = SURFACE_STYLE_USAGE( .BOTH., #191 );
#127 = FACE_OUTER_BOUND( '', #192, .T. );
#128 = FACE_OUTER_BOUND( '', #193, .T. );
#129 = CYLINDRICAL_SURFACE( '', #194, 5.00000000000000 );
#130 = SURFACE_STYLE_USAGE( .BOTH., #195 );
#131 = FACE_BOUND( '', #196, .T. );
#132 = FACE_OUTER_BOUND( '', #197, .T. );
#133 = CONICAL_SURFACE( '', #198, 5.00000000000000, 0.785398163397448 );
#134 = SURFACE_STYLE_USAGE( .BOTH., #199 );
#135 = FACE_OUTER_BOUND( '', #200, .T. );
#136 = FACE_OUTER_BOUND( '', #201, .T. );
#137 = CYLINDRICAL_SURFACE( '', #202, 4.18800000000000 );
#138 = SURFACE_STYLE_USAGE( .BOTH., #203 );
#139 = FACE_OUTER_BOUND( '', #204, .T. );
#140 = FACE_OUTER_BOUND( '', #205, .T. );
#141 = CYLINDRICAL_SURFACE( '', #206, 4.18800000000000 );
#142 = PRODUCT_CONTEXT( '', #25, 'mechanical' );
#143 = PRODUCT_DEFINITION_FORMATION_WITH_SPECIFIED_SOURCE( ' ', 'NONE', #68, .NOT_KNOWN. );
#144 = CLOSED_SHELL( '', ( #43, #59, #51, #57, #53, #49, #55, #39, #45, #61 ) );
#145 = ORIENTED_CLOSED_SHELL( '', *, #207, .T. );
#146 = CARTESIAN_POINT( '', ( 0.000000000000000, 0.000000000000000, 0.000000000000000 ) );
#147 = DIRECTION( '', ( 0.000000000000000, 0.000000000000000, 1.00000000000000 ) );
#148 = DIRECTION( '', ( 1.00000000000000, 0.000000000000000, 0.000000000000000 ) );
#149 =  ( LENGTH_UNIT(  )NAMED_UNIT( #77 )SI_UNIT( .MILLI., .METRE. ) );
#150 = SURFACE_SIDE_STYLE( '', ( #209 ) );
#151 = EDGE_LOOP( '', ( #210 ) );
#152 = EDGE_LOOP( '', ( #211 ) );
#153 = AXIS2_PLACEMENT_3D( '', #212, #213, #214 );
#154 = SURFACE_SIDE_STYLE( '', ( #215 ) );
#155 = EDGE_LOOP( '', ( #216 ) );
#156 = AXIS2_PLACEMENT_3D( '', #217, #218, #219 );
#157 = SURFACE_SIDE_STYLE( '', ( #220 ) );
#158 = EDGE_LOOP( '', ( #221 ) );
#159 = EDGE_LOOP( '', ( #222 ) );
#160 = AXIS2_PLACEMENT_3D( '', #223, #224, #225 );
#161 = SURFACE_SIDE_STYLE( '', ( #226 ) );
#162 = EDGE_LOOP( '', ( #227 ) );
#163 = AXIS2_PLACEMENT_3D( '', #228, #229, #230 );
#164 = SURFACE_SIDE_STYLE( '', ( #231 ) );
#165 = EDGE_LOOP( '', ( #232 ) );
#166 = VERTEX_LOOP( '', #233 );
#167 = AXIS2_PLACEMENT_3D( '', #234, #235, #236 );
#168 = SURFACE_SIDE_STYLE( '', ( #237 ) );
#169 = EDGE_LOOP( '', ( #238 ) );
#170 = EDGE_LOOP( '', ( #239 ) );
#171 = AXIS2_PLACEMENT_3D( '', #240, #241, #242 );
#172 = SURFACE_SIDE_STYLE( '', ( #243 ) );
#173 = EDGE_LOOP( '', ( #244 ) );
#174 = AXIS2_PLACEMENT_3D( '', #245, #246, #247 );
#175 = SURFACE_SIDE_STYLE( '', ( #248 ) );
#176 = EDGE_LOOP( '', ( #249 ) );
#177 = EDGE_LOOP( '', ( #250 ) );
#178 = AXIS2_PLACEMENT_3D( '', #251, #252, #253 );
#179 = SURFACE_SIDE_STYLE( '', ( #254 ) );
#180 = EDGE_LOOP( '', ( #255 ) );
#181 = EDGE_LOOP( '', ( #256 ) );
#182 = AXIS2_PLACEMENT_3D( '', #257, #258, #259 );
#183 = SURFACE_SIDE_STYLE( '', ( #260 ) );
#184 = EDGE_LOOP( '', ( #261 ) );
#185 = EDGE_LOOP( '', ( #262 ) );
#186 = AXIS2_PLACEMENT_3D( '', #263, #264, #265 );
#187 = SURFACE_SIDE_STYLE( '', ( #266 ) );
#188 = EDGE_LOOP( '', ( #267 ) );
#189 = EDGE_LOOP( '', ( #268 ) );
#190 = AXIS2_PLACEMENT_3D( '', #269, #270, #271 );
#191 = SURFACE_SIDE_STYLE( '', ( #272 ) );
#192 = EDGE_LOOP( '', ( #273 ) );
#193 = EDGE_LOOP( '', ( #274 ) );
#194 = AXIS2_PLACEMENT_3D( '', #275, #276, #277 );
#195 = SURFACE_SIDE_STYLE( '', ( #278 ) );
#196 = EDGE_LOOP( '', ( #279 ) );
#197 = EDGE_LOOP( '', ( #280 ) );
#198 = AXIS2_PLACEMENT_3D( '', #281, #282, #283 );
#199 = SURFACE_SIDE_STYLE( '', ( #284 ) );
#200 = EDGE_LOOP( '', ( #285 ) );
#201 = EDGE_LOOP( '', ( #286 ) );
#202 = AXIS2_PLACEMENT_3D( '', #287, #288, #289 );
#203 = SURFACE_SIDE_STYLE( '', ( #290 ) );
#204 = EDGE_LOOP( '', ( #291 ) );
#205 = EDGE_LOOP( '', ( #292 ) );
#206 = AXIS2_PLACEMENT_3D( '', #293, #294, #295 );
#207 = CLOSED_SHELL( '', ( #47, #67, #65, #63, #41 ) );
#209 = SURFACE_STYLE_FILL_AREA( #296 );
#210 = ORIENTED_EDGE( '', *, *, #297, .F. );
#211 = ORIENTED_EDGE( '', *, *, #298, .F. );
#212 = CARTESIAN_POINT( '', ( 2.66388473779688E-015, 8.32667268468867E-016, -72.5000000000000 ) );
#213 = DIRECTION( '', ( -0.000000000000000, -0.000000000000000, 1.00000000000000 ) );
#214 = DIRECTION( '', ( 1.00000000000000, 0.000000000000000, 0.000000000000000 ) );
#215 = SURFACE_STYLE_FILL_AREA( #299 );
#216 = ORIENTED_EDGE( '', *, *, #300, .T. );
#217 = CARTESIAN_POINT( '', ( 2.66388473779688E-015, 8.32667268468867E-016, -32.5000000000000 ) );
#218 = DIRECTION( '', ( 0.000000000000000, 0.000000000000000, -1.00000000000000 ) );
#219 = DIRECTION( '', ( -1.00000000000000, 0.000000000000000, 0.000000000000000 ) );
#220 = SURFACE_STYLE_FILL_AREA( #301 );
#221 = ORIENTED_EDGE( '', *, *, #302, .T. );
#222 = ORIENTED_EDGE( '', *, *, #303, .T. );
#223 = CARTESIAN_POINT( '', ( 1.23775379339770E-014, 0.000000000000000, -57.5000000000000 ) );
#224 = DIRECTION( '', ( 0.000000000000000, 0.000000000000000, 1.00000000000000 ) );
#225 = DIRECTION( '', ( 1.00000000000000, 0.000000000000000, 0.000000000000000 ) );
#226 = SURFACE_STYLE_FILL_AREA( #304 );
#227 = ORIENTED_EDGE( '', *, *, #298, .T. );
#228 = CARTESIAN_POINT( '', ( 2.66388473779688E-015, 8.32667268468867E-016, -72.5000000000000 ) );
#229 = DIRECTION( '', ( 0.000000000000000, 0.000000000000000, -1.00000000000000 ) );
#230 = DIRECTION( '', ( -1.00000000000000, 0.000000000000000, 0.000000000000000 ) );
#231 = SURFACE_STYLE_FILL_AREA( #305 );
#232 = ORIENTED_EDGE( '', *, *, #306, .F. );
#233 = VERTEX_POINT( '', #307 );
#234 = CARTESIAN_POINT( '', ( 3.49655200626575E-015, 0.000000000000000, -7.50000000000000 ) );
#235 = DIRECTION( '', ( 0.000000000000000, -0.000000000000000, -1.00000000000000 ) );
#236 = DIRECTION( '', ( 0.000000000000000, -1.00000000000000, 0.000000000000000 ) );
#237 = SURFACE_STYLE_FILL_AREA( #308 );
#238 = ORIENTED_EDGE( '', *, *, #309, .T. );
#239 = ORIENTED_EDGE( '', *, *, #310, .F. );
#240 = CARTESIAN_POINT( '', ( 1.23775379339770E-014, 0.000000000000000, -57.5000000000000 ) );
#241 = DIRECTION( '', ( -0.000000000000000, -0.000000000000000, 1.00000000000000 ) );
#242 = DIRECTION( '', ( 1.00000000000000, 0.000000000000000, 0.000000000000000 ) );
#243 = SURFACE_STYLE_FILL_AREA( #311 );
#244 = ORIENTED_EDGE( '', *, *, #312, .T. );
#245 = CARTESIAN_POINT( '', ( 14.5000000000000, 0.000000000000000, 57.5000000000000 ) );
#246 = DIRECTION( '', ( 0.000000000000000, 0.000000000000000, -1.00000000000000 ) );
#247 = DIRECTION( '', ( -1.00000000000000, 0.000000000000000, 0.000000000000000 ) );
#248 = SURFACE_STYLE_FILL_AREA( #313 );
#249 = ORIENTED_EDGE( '', *, *, #314, .T. );
#250 = ORIENTED_EDGE( '', *, *, #310, .T. );
#251 = CARTESIAN_POINT( '', ( 1.23775379339770E-014, 0.000000000000000, -15.5000000000000 ) );
#252 = DIRECTION( '', ( -0.000000000000000, -0.000000000000000, 1.00000000000000 ) );
#253 = DIRECTION( '', ( 1.00000000000000, 0.000000000000000, 0.000000000000000 ) );
#254 = SURFACE_STYLE_FILL_AREA( #315 );
#255 = ORIENTED_EDGE( '', *, *, #316, .F. );
#256 = ORIENTED_EDGE( '', *, *, #302, .F. );
#257 = CARTESIAN_POINT( '', ( 3.49655200626575E-015, 0.000000000000000, -56.0000000000000 ) );
#258 = DIRECTION( '', ( 0.000000000000000, 0.000000000000000, 1.00000000000000 ) );
#259 = DIRECTION( '', ( 1.00000000000000, 0.000000000000000, 0.000000000000000 ) );
#260 = SURFACE_STYLE_FILL_AREA( #317 );
#261 = ORIENTED_EDGE( '', *, *, #303, .F. );
#262 = ORIENTED_EDGE( '', *, *, #309, .F. );
#263 = CARTESIAN_POINT( '', ( 1.23775379339770E-014, 0.000000000000000, -56.5000000000000 ) );
#264 = DIRECTION( '', ( 0.000000000000000, 0.000000000000000, 1.00000000000000 ) );
#265 = DIRECTION( '', ( 1.00000000000000, 0.000000000000000, 0.000000000000000 ) );
#266 = SURFACE_STYLE_FILL_AREA( #318 );
#267 = ORIENTED_EDGE( '', *, *, #314, .F. );
#268 = ORIENTED_EDGE( '', *, *, #312, .F. );
#269 = CARTESIAN_POINT( '', ( 1.23775379339770E-014, 0.000000000000000, 55.5000000000000 ) );
#270 = DIRECTION( '', ( 0.000000000000000, 0.000000000000000, -1.00000000000000 ) );
#271 = DIRECTION( '', ( -1.00000000000000, 0.000000000000000, 0.000000000000000 ) );
#272 = SURFACE_STYLE_FILL_AREA( #319 );
#273 = ORIENTED_EDGE( '', *, *, #316, .T. );
#274 = ORIENTED_EDGE( '', *, *, #297, .T. );
#275 = CARTESIAN_POINT( '', ( 2.66388473779688E-015, 8.32667268468867E-016, -32.5000000000000 ) );
#276 = DIRECTION( '', ( -0.000000000000000, -0.000000000000000, 1.00000000000000 ) );
#277 = DIRECTION( '', ( -1.00000000000000, 0.000000000000000, 0.000000000000000 ) );
#278 = SURFACE_STYLE_FILL_AREA( #320 );
#279 = ORIENTED_EDGE( '', *, *, #300, .F. );
#280 = ORIENTED_EDGE( '', *, *, #321, .F. );
#281 = CARTESIAN_POINT( '', ( 2.66388473779688E-015, 8.32667268468867E-016, -33.5000000000000 ) );
#282 = DIRECTION( '', ( -0.000000000000000, 0.000000000000000, -1.00000000000000 ) );
#283 = DIRECTION( '', ( -1.00000000000000, 0.000000000000000, 0.000000000000000 ) );
#284 = SURFACE_STYLE_FILL_AREA( #322 );
#285 = ORIENTED_EDGE( '', *, *, #321, .T. );
#286 = ORIENTED_EDGE( '', *, *, #323, .F. );
#287 = CARTESIAN_POINT( '', ( 3.49655200626575E-015, 0.000000000000000, -57.5000000000000 ) );
#288 = DIRECTION( '', ( -0.000000000000000, 0.000000000000000, -1.00000000000000 ) );
#289 = DIRECTION( '', ( 0.000000000000000, 1.00000000000000, 0.000000000000000 ) );
#290 = SURFACE_STYLE_FILL_AREA( #324 );
#291 = ORIENTED_EDGE( '', *, *, #306, .T. );
#292 = ORIENTED_EDGE( '', *, *, #323, .T. );
#293 = CARTESIAN_POINT( '', ( 3.49655200626575E-015, 0.000000000000000, -57.5000000000000 ) );
#294 = DIRECTION( '', ( -0.000000000000000, 0.000000000000000, -1.00000000000000 ) );
#295 = DIRECTION( '', ( 0.000000000000000, 1.00000000000000, 0.000000000000000 ) );
#296 = FILL_AREA_STYLE( '', ( #325 ) );
#297 = EDGE_CURVE( '', #326, #326, #327, .F. );
#298 = EDGE_CURVE( '', #328, #328, #329, .T. );
#299 = FILL_AREA_STYLE( '', ( #330 ) );
#300 = EDGE_CURVE( '', #331, #331, #332, .F. );
#301 = FILL_AREA_STYLE( '', ( #333 ) );
#302 = EDGE_CURVE( '', #334, #334, #335, .T. );
#303 = EDGE_CURVE( '', #336, #336, #337, .F. );
#304 = FILL_AREA_STYLE( '', ( #338 ) );
#305 = FILL_AREA_STYLE( '', ( #339 ) );
#306 = EDGE_CURVE( '', #340, #340, #341, .T. );
#307 = CARTESIAN_POINT( '', ( 3.49655200626575E-015, 0.000000000000000, -4.98359572751258 ) );
#308 = FILL_AREA_STYLE( '', ( #342 ) );
#309 = EDGE_CURVE( '', #343, #343, #344, .F. );
#310 = EDGE_CURVE( '', #345, #345, #346, .T. );
#311 = FILL_AREA_STYLE( '', ( #347 ) );
#312 = EDGE_CURVE( '', #348, #348, #349, .F. );
#313 = FILL_AREA_STYLE( '', ( #350 ) );
#314 = EDGE_CURVE( '', #351, #351, #352, .T. );
#315 = FILL_AREA_STYLE( '', ( #353 ) );
#316 = EDGE_CURVE( '', #354, #354, #355, .F. );
#317 = FILL_AREA_STYLE( '', ( #356 ) );
#318 = FILL_AREA_STYLE( '', ( #357 ) );
#319 = FILL_AREA_STYLE( '', ( #358 ) );
#320 = FILL_AREA_STYLE( '', ( #359 ) );
#321 = EDGE_CURVE( '', #360, #360, #361, .T. );
#322 = FILL_AREA_STYLE( '', ( #362 ) );
#323 = EDGE_CURVE( '', #363, #363, #364, .T. );
#324 = FILL_AREA_STYLE( '', ( #365 ) );
#325 = FILL_AREA_STYLE_COLOUR( '', #366 );
#326 = VERTEX_POINT( '', #367 );
#327 = CIRCLE( '', #368, 5.00000000000000 );
#328 = VERTEX_POINT( '', #369 );
#329 = CIRCLE( '', #370, 4.00000000000000 );
#330 = FILL_AREA_STYLE_COLOUR( '', #371 );
#331 = VERTEX_POINT( '', #372 );
#332 = CIRCLE( '', #373, 4.00000000000000 );
#333 = FILL_AREA_STYLE_COLOUR( '', #374 );
#334 = VERTEX_POINT( '', #375 );
#335 = CIRCLE( '', #376, 5.68800000000000 );
#336 = VERTEX_POINT( '', #377 );
#337 = CIRCLE( '', #378, 10.3210893007139 );
#338 = FILL_AREA_STYLE_COLOUR( '', #379 );
#339 = FILL_AREA_STYLE_COLOUR( '', #380 );
#340 = VERTEX_POINT( '', #381 );
#341 = CIRCLE( '', #382, 4.18800000000000 );
#342 = FILL_AREA_STYLE_COLOUR( '', #383 );
#343 = VERTEX_POINT( '', #384 );
#344 = CIRCLE( '', #385, 11.3183764571579 );
#345 = VERTEX_POINT( '', #386 );
#346 = CIRCLE( '', #387, 14.3500000000000 );
#347 = FILL_AREA_STYLE_COLOUR( '', #388 );
#348 = VERTEX_POINT( '', #389 );
#349 = CIRCLE( '', #390, 12.4958861887828 );
#350 = FILL_AREA_STYLE_COLOUR( '', #391 );
#351 = VERTEX_POINT( '', #392 );
#352 = CIRCLE( '', #393, 14.4958819666157 );
#353 = FILL_AREA_STYLE_COLOUR( '', #394 );
#354 = VERTEX_POINT( '', #395 );
#355 = CIRCLE( '', #396, 5.00000000000000 );
#356 = FILL_AREA_STYLE_COLOUR( '', #397 );
#357 = FILL_AREA_STYLE_COLOUR( '', #398 );
#358 = FILL_AREA_STYLE_COLOUR( '', #399 );
#359 = FILL_AREA_STYLE_COLOUR( '', #400 );
#360 = VERTEX_POINT( '', #401 );
#361 = CIRCLE( '', #402, 4.18800000000000 );
#362 = FILL_AREA_STYLE_COLOUR( '', #403 );
#363 = VERTEX_POINT( '', #404 );
#364 = CIRCLE( '', #405, 4.18800000000000 );
#365 = FILL_AREA_STYLE_COLOUR( '', #406 );
#366 = COLOUR_RGB( '', 0.666666686534882, 0.733333349227905, 0.866666674613953 );
#367 = CARTESIAN_POINT( '', ( -5.00000000000000, 8.32667268468867E-016, -71.5000000000000 ) );
#368 = AXIS2_PLACEMENT_3D( '', #407, #408, #409 );
#369 = CARTESIAN_POINT( '', ( -4.00000000000000, 8.32667268468867E-016, -72.5000000000000 ) );
#370 = AXIS2_PLACEMENT_3D( '', #410, #411, #412 );
#371 = COLOUR_RGB( '', 0.666666686534882, 0.733333349227905, 0.866666674613953 );
#372 = CARTESIAN_POINT( '', ( -4.00000000000000, 8.32667268468867E-016, -32.5000000000000 ) );
#373 = AXIS2_PLACEMENT_3D( '', #413, #414, #415 );
#374 = COLOUR_RGB( '', 0.200000002980232, 0.200000002980232, 0.200000002980232 );
#375 = CARTESIAN_POINT( '', ( 5.68800000000000, 0.000000000000000, -57.5000000000000 ) );
#376 = AXIS2_PLACEMENT_3D( '', #416, #417, #418 );
#377 = CARTESIAN_POINT( '', ( 10.3210893007139, 0.000000000000000, -57.5000000000000 ) );
#378 = AXIS2_PLACEMENT_3D( '', #419, #420, #421 );
#379 = COLOUR_RGB( '', 0.666666686534882, 0.733333349227905, 0.866666674613953 );
#380 = COLOUR_RGB( '', 0.200000002980232, 0.200000002980232, 0.200000002980232 );
#381 = CARTESIAN_POINT( '', ( 3.49655200626575E-015, -4.18800000000000, -7.50000000000000 ) );
#382 = AXIS2_PLACEMENT_3D( '', #422, #423, #424 );
#383 = COLOUR_RGB( '', 0.200000002980232, 0.200000002980232, 0.200000002980232 );
#384 = CARTESIAN_POINT( '', ( -11.3183764571579, 0.000000000000000, -56.5736092901185 ) );
#385 = AXIS2_PLACEMENT_3D( '', #425, #426, #427 );
#386 = CARTESIAN_POINT( '', ( 14.3500000000000, 0.000000000000000, -15.5000000000000 ) );
#387 = AXIS2_PLACEMENT_3D( '', #428, #429, #430 );
#388 = COLOUR_RGB( '', 0.200000002980232, 0.200000002980232, 0.200000002980232 );
#389 = CARTESIAN_POINT( '', ( -12.4958861887828, 0.000000000000000, 57.5000000000000 ) );
#390 = AXIS2_PLACEMENT_3D( '', #431, #432, #433 );
#391 = COLOUR_RGB( '', 0.200000002980232, 0.200000002980232, 0.200000002980232 );
#392 = CARTESIAN_POINT( '', ( -14.4958819666157, 0.000000000000000, 55.4958904196345 ) );
#393 = AXIS2_PLACEMENT_3D( '', #434, #435, #436 );
#394 = COLOUR_RGB( '', 0.200000002980232, 0.200000002980232, 0.200000002980232 );
#395 = CARTESIAN_POINT( '', ( 5.00000000000000, 0.000000000000000, -57.3329126002856 ) );
#396 = AXIS2_PLACEMENT_3D( '', #437, #438, #439 );
#397 = COLOUR_RGB( '', 0.200000002980232, 0.200000002980232, 0.200000002980232 );
#398 = COLOUR_RGB( '', 0.200000002980232, 0.200000002980232, 0.200000002980232 );
#399 = COLOUR_RGB( '', 0.752941191196442, 0.752941191196442, 0.752941191196442 );
#400 = COLOUR_RGB( '', 0.666666686534882, 0.733333349227905, 0.866666674613953 );
#401 = CARTESIAN_POINT( '', ( -4.18800000000000, 8.32667268468867E-016, -32.6880000000000 ) );
#402 = AXIS2_PLACEMENT_3D( '', #440, #441, #442 );
#403 = COLOUR_RGB( '', 0.752941191196442, 0.752941191196442, 0.752941191196442 );
#404 = CARTESIAN_POINT( '', ( 3.49655200626575E-015, 4.18800000000000, -17.5000000000000 ) );
#405 = AXIS2_PLACEMENT_3D( '', #443, #444, #445 );
#406 = COLOUR_RGB( '', 0.200000002980232, 0.200000002980232, 0.200000002980232 );
#407 = CARTESIAN_POINT( '', ( 2.66388473779688E-015, 8.32667268468867E-016, -71.5000000000000 ) );
#408 = DIRECTION( '', ( 0.000000000000000, 0.000000000000000, -1.00000000000000 ) );
#409 = DIRECTION( '', ( -1.00000000000000, 0.000000000000000, 0.000000000000000 ) );
#410 = CARTESIAN_POINT( '', ( 2.66388473779688E-015, 8.32667268468867E-016, -72.5000000000000 ) );
#411 = DIRECTION( '', ( 0.000000000000000, 0.000000000000000, -1.00000000000000 ) );
#412 = DIRECTION( '', ( -1.00000000000000, 0.000000000000000, 0.000000000000000 ) );
#413 = CARTESIAN_POINT( '', ( 2.66388473779688E-015, 8.32667268468867E-016, -32.5000000000000 ) );
#414 = DIRECTION( '', ( 0.000000000000000, 0.000000000000000, -1.00000000000000 ) );
#415 = DIRECTION( '', ( -1.00000000000000, 0.000000000000000, 0.000000000000000 ) );
#416 = CARTESIAN_POINT( '', ( 3.49655200626575E-015, 0.000000000000000, -57.5000000000000 ) );
#417 = DIRECTION( '', ( 0.000000000000000, 0.000000000000000, 1.00000000000000 ) );
#418 = DIRECTION( '', ( 1.00000000000000, 0.000000000000000, 0.000000000000000 ) );
#419 = CARTESIAN_POINT( '', ( 1.23775379339770E-014, 0.000000000000000, -57.5000000000000 ) );
#420 = DIRECTION( '', ( 0.000000000000000, 0.000000000000000, 1.00000000000000 ) );
#421 = DIRECTION( '', ( 1.00000000000000, 0.000000000000000, 0.000000000000000 ) );
#422 = CARTESIAN_POINT( '', ( 3.49655200626575E-015, 0.000000000000000, -7.50000000000000 ) );
#423 = DIRECTION( '', ( 0.000000000000000, 0.000000000000000, 1.00000000000000 ) );
#424 = DIRECTION( '', ( 0.000000000000000, -1.00000000000000, 0.000000000000000 ) );
#425 = CARTESIAN_POINT( '', ( 1.23775379339770E-014, 0.000000000000000, -56.5736092901185 ) );
#426 = DIRECTION( '', ( 0.000000000000000, 0.000000000000000, -1.00000000000000 ) );
#427 = DIRECTION( '', ( -1.00000000000000, 0.000000000000000, 0.000000000000000 ) );
#428 = CARTESIAN_POINT( '', ( 1.23775379339770E-014, 0.000000000000000, -15.5000000000000 ) );
#429 = DIRECTION( '', ( 0.000000000000000, 0.000000000000000, 1.00000000000000 ) );
#430 = DIRECTION( '', ( 1.00000000000000, 0.000000000000000, 0.000000000000000 ) );
#431 = CARTESIAN_POINT( '', ( 1.23775379339770E-014, 0.000000000000000, 57.5000000000000 ) );
#432 = DIRECTION( '', ( 0.000000000000000, 0.000000000000000, -1.00000000000000 ) );
#433 = DIRECTION( '', ( -1.00000000000000, 0.000000000000000, 0.000000000000000 ) );
#434 = CARTESIAN_POINT( '', ( 1.23775379339770E-014, 0.000000000000000, 55.4958904196345 ) );
#435 = DIRECTION( '', ( 0.000000000000000, 0.000000000000000, -1.00000000000000 ) );
#436 = DIRECTION( '', ( -1.00000000000000, 0.000000000000000, 0.000000000000000 ) );
#437 = CARTESIAN_POINT( '', ( 3.49655200626575E-015, 0.000000000000000, -57.3329126002856 ) );
#438 = DIRECTION( '', ( 0.000000000000000, 0.000000000000000, 1.00000000000000 ) );
#439 = DIRECTION( '', ( 1.00000000000000, 0.000000000000000, 0.000000000000000 ) );
#440 = CARTESIAN_POINT( '', ( 2.66388473779688E-015, 8.32667268468867E-016, -32.6880000000000 ) );
#441 = DIRECTION( '', ( 0.000000000000000, 0.000000000000000, -1.00000000000000 ) );
#442 = DIRECTION( '', ( -1.00000000000000, 0.000000000000000, 0.000000000000000 ) );
#443 = CARTESIAN_POINT( '', ( 3.49655200626575E-015, 0.000000000000000, -17.5000000000000 ) );
#444 = DIRECTION( '', ( 0.000000000000000, 0.000000000000000, -1.00000000000000 ) );
#445 = DIRECTION( '', ( 0.000000000000000, 1.00000000000000, 0.000000000000000 ) );
ENDSEC;
END-ISO-10303-21;
