ISO-10303-21;
HEADER;
FILE_DESCRIPTION( ( 'Unknown' ), '1' );
FILE_NAME( '//SBS2003/HD_Usb/Disegni/08_LIB/Users_3D/PROD_GAMM_3D/MCA/6137030_MCA25x65.stp', 'Unknown', ( 'Unknown' ), ( 'Unknown' ), 'PSStep 11.0', 'Unknown', '  ' );
FILE_SCHEMA( ( 'AUTOMOTIVE_DESIGN { 1 0 10303 214 1 1 1 1 }' ) );
ENDSEC;
DATA;
#1 = MECHANICAL_DESIGN_GEOMETRIC_PRESENTATION_REPRESENTATION( ' ', ( #10, #11, #12, #13, #14, #15, #16, #17, #18, #19, #20, #21, #22, #23, #24 ), #6 );
#2 = PRODUCT_DEFINITION_CONTEXT( '', #25, 'design' );
#3 = APPLICATION_PROTOCOL_DEFINITION( 'INTERNATIONAL STANDARD', 'automotive_design', 2001, #25 );
#4 = PRODUCT_CATEGORY_RELATIONSHIP( 'NONE', 'NONE', #26, #27 );
#5 = SHAPE_DEFINITION_REPRESENTATION( #28, #29 );
#6 =  ( GEOMETRIC_REPRESENTATION_CONTEXT( 3 )GLOBAL_UNCERTAINTY_ASSIGNED_CONTEXT( ( #32 ) )GLOBAL_UNIT_ASSIGNED_CONTEXT( ( #34, #35, #36 ) )REPRESENTATION_CONTEXT( 'NONE', 'WORKSPACE' ) );
#10 = STYLED_ITEM( '', ( #38 ), #39 );
#11 = STYLED_ITEM( '', ( #40 ), #41 );
#12 = STYLED_ITEM( '', ( #42 ), #43 );
#13 = STYLED_ITEM( '', ( #44 ), #45 );
#14 = STYLED_ITEM( '', ( #46 ), #47 );
#15 = STYLED_ITEM( '', ( #48 ), #49 );
#16 = STYLED_ITEM( '', ( #50 ), #51 );
#17 = STYLED_ITEM( '', ( #52 ), #53 );
#18 = STYLED_ITEM( '', ( #54 ), #55 );
#19 = STYLED_ITEM( '', ( #56 ), #57 );
#20 = STYLED_ITEM( '', ( #58 ), #59 );
#21 = STYLED_ITEM( '', ( #60 ), #61 );
#22 = STYLED_ITEM( '', ( #62 ), #63 );
#23 = STYLED_ITEM( '', ( #64 ), #65 );
#24 = STYLED_ITEM( '', ( #66 ), #67 );
#25 = APPLICATION_CONTEXT( 'core data for automotive mechanical design processes' );
#26 = PRODUCT_CATEGORY( 'part', 'NONE' );
#27 = PRODUCT_RELATED_PRODUCT_CATEGORY( 'detail', ' ', ( #68 ) );
#28 = PRODUCT_DEFINITION_SHAPE( 'NONE', 'NONE', #69 );
#29 = ADVANCED_BREP_SHAPE_REPRESENTATION( '6137030', ( #70, #71 ), #6 );
#32 = UNCERTAINTY_MEASURE_WITH_UNIT( LENGTH_MEASURE( 0.00100000000000000 ), #34, '', '' );
#34 =  ( CONVERSION_BASED_UNIT( 'MILLIMETRE', #74 )LENGTH_UNIT(  )NAMED_UNIT( #77 ) );
#35 =  ( NAMED_UNIT( #79 )PLANE_ANGLE_UNIT(  )SI_UNIT( $, .RADIAN. ) );
#36 =  ( NAMED_UNIT( #79 )SI_UNIT( $, .STERADIAN. )SOLID_ANGLE_UNIT(  ) );
#38 = PRESENTATION_STYLE_ASSIGNMENT( ( #85 ) );
#39 = ADVANCED_FACE( '', ( #86, #87 ), #88, .T. );
#40 = PRESENTATION_STYLE_ASSIGNMENT( ( #89 ) );
#41 = ADVANCED_FACE( '', ( #90, #91 ), #92, .T. );
#42 = PRESENTATION_STYLE_ASSIGNMENT( ( #93 ) );
#43 = ADVANCED_FACE( '', ( #94, #95 ), #96, .T. );
#44 = PRESENTATION_STYLE_ASSIGNMENT( ( #97 ) );
#45 = ADVANCED_FACE( '', ( #98, #99 ), #100, .T. );
#46 = PRESENTATION_STYLE_ASSIGNMENT( ( #101 ) );
#47 = ADVANCED_FACE( '', ( #102, #103 ), #104, .T. );
#48 = PRESENTATION_STYLE_ASSIGNMENT( ( #105 ) );
#49 = ADVANCED_FACE( '', ( #106, #107 ), #108, .T. );
#50 = PRESENTATION_STYLE_ASSIGNMENT( ( #109 ) );
#51 = ADVANCED_FACE( '', ( #110, #111 ), #112, .F. );
#52 = PRESENTATION_STYLE_ASSIGNMENT( ( #113 ) );
#53 = ADVANCED_FACE( '', ( #114 ), #115, .F. );
#54 = PRESENTATION_STYLE_ASSIGNMENT( ( #116 ) );
#55 = ADVANCED_FACE( '', ( #117 ), #118, .F. );
#56 = PRESENTATION_STYLE_ASSIGNMENT( ( #119 ) );
#57 = ADVANCED_FACE( '', ( #120, #121 ), #122, .F. );
#58 = PRESENTATION_STYLE_ASSIGNMENT( ( #123 ) );
#59 = ADVANCED_FACE( '', ( #124, #125 ), #126, .T. );
#60 = PRESENTATION_STYLE_ASSIGNMENT( ( #127 ) );
#61 = ADVANCED_FACE( '', ( #128, #129 ), #130, .F. );
#62 = PRESENTATION_STYLE_ASSIGNMENT( ( #131 ) );
#63 = ADVANCED_FACE( '', ( #132, #133 ), #134, .F. );
#64 = PRESENTATION_STYLE_ASSIGNMENT( ( #135 ) );
#65 = ADVANCED_FACE( '', ( #136, #137 ), #138, .T. );
#66 = PRESENTATION_STYLE_ASSIGNMENT( ( #139 ) );
#67 = ADVANCED_FACE( '', ( #140, #141 ), #142, .T. );
#68 = PRODUCT( '6137030', '6137030', 'PART-6137030-DESC', ( #143 ) );
#69 = PRODUCT_DEFINITION( 'NONE', 'NONE', #144, #2 );
#70 = BREP_WITH_VOIDS( '6137030', #145, ( #146 ) );
#71 = AXIS2_PLACEMENT_3D( '', #147, #148, #149 );
#74 = LENGTH_MEASURE_WITH_UNIT( LENGTH_MEASURE( 1.00000000000000 ), #150 );
#77 = DIMENSIONAL_EXPONENTS( 1.00000000000000, 0.000000000000000, 0.000000000000000, 0.000000000000000, 0.000000000000000, 0.000000000000000, 0.000000000000000 );
#79 = DIMENSIONAL_EXPONENTS( 0.000000000000000, 0.000000000000000, 0.000000000000000, 0.000000000000000, 0.000000000000000, 0.000000000000000, 0.000000000000000 );
#85 = SURFACE_STYLE_USAGE( .BOTH., #151 );
#86 = FACE_BOUND( '', #152, .T. );
#87 = FACE_OUTER_BOUND( '', #153, .T. );
#88 = PLANE( '', #154 );
#89 = SURFACE_STYLE_USAGE( .BOTH., #155 );
#90 = FACE_BOUND( '', #156, .T. );
#91 = FACE_OUTER_BOUND( '', #157, .T. );
#92 = CONICAL_SURFACE( '', #158, 10.0000000000000, 0.0808578050022150 );
#93 = SURFACE_STYLE_USAGE( .BOTH., #159 );
#94 = FACE_OUTER_BOUND( '', #160, .T. );
#95 = FACE_BOUND( '', #161, .T. );
#96 = CONICAL_SURFACE( '', #162, 12.3500000000000, 0.00416664255426339 );
#97 = SURFACE_STYLE_USAGE( .BOTH., #163 );
#98 = FACE_OUTER_BOUND( '', #164, .T. );
#99 = FACE_OUTER_BOUND( '', #165, .T. );
#100 = TOROIDAL_SURFACE( '', #166, 10.4916493056309, 2.00000000000000 );
#101 = SURFACE_STYLE_USAGE( .BOTH., #167 );
#102 = FACE_OUTER_BOUND( '', #168, .T. );
#103 = FACE_BOUND( '', #169, .T. );
#104 = CONICAL_SURFACE( '', #170, 6.50000000000000, 0.785398163397448 );
#105 = SURFACE_STYLE_USAGE( .BOTH., #171 );
#106 = FACE_OUTER_BOUND( '', #172, .T. );
#107 = FACE_OUTER_BOUND( '', #173, .T. );
#108 = TOROIDAL_SURFACE( '', #174, 9.07775656144472, 1.00000000000000 );
#109 = SURFACE_STYLE_USAGE( .BOTH., #175 );
#110 = FACE_OUTER_BOUND( '', #176, .T. );
#111 = FACE_OUTER_BOUND( '', #177, .T. );
#112 = CYLINDRICAL_SURFACE( '', #178, 8.50000000000000 );
#113 = SURFACE_STYLE_USAGE( .BOTH., #179 );
#114 = FACE_OUTER_BOUND( '', #180, .T. );
#115 = PLANE( '', #181 );
#116 = SURFACE_STYLE_USAGE( .BOTH., #182 );
#117 = FACE_OUTER_BOUND( '', #183, .T. );
#118 = PLANE( '', #184 );
#119 = SURFACE_STYLE_USAGE( .BOTH., #185 );
#120 = FACE_BOUND( '', #186, .T. );
#121 = FACE_OUTER_BOUND( '', #187, .T. );
#122 = PLANE( '', #188 );
#123 = SURFACE_STYLE_USAGE( .BOTH., #189 );
#124 = FACE_OUTER_BOUND( '', #190, .T. );
#125 = FACE_OUTER_BOUND( '', #191, .T. );
#126 = TOROIDAL_SURFACE( '', #192, 7.25000000000000, 1.00000000000000 );
#127 = SURFACE_STYLE_USAGE( .BOTH., #193 );
#128 = FACE_OUTER_BOUND( '', #194, .T. );
#129 = FACE_OUTER_BOUND( '', #195, .T. );
#130 = CYLINDRICAL_SURFACE( '', #196, 6.00000000000000 );
#131 = SURFACE_STYLE_USAGE( .BOTH., #197 );
#132 = FACE_OUTER_BOUND( '', #198, .T. );
#133 = FACE_OUTER_BOUND( '', #199, .T. );
#134 = CYLINDRICAL_SURFACE( '', #200, 6.25000000000000 );
#135 = SURFACE_STYLE_USAGE( .BOTH., #201 );
#136 = FACE_OUTER_BOUND( '', #202, .T. );
#137 = FACE_OUTER_BOUND( '', #203, .T. );
#138 = TOROIDAL_SURFACE( '', #204, 7.25000000000000, 1.25000000000000 );
#139 = SURFACE_STYLE_USAGE( .BOTH., #205 );
#140 = FACE_BOUND( '', #206, .T. );
#141 = FACE_OUTER_BOUND( '', #207, .T. );
#142 = PLANE( '', #208 );
#143 = PRODUCT_CONTEXT( '', #25, 'mechanical' );
#144 = PRODUCT_DEFINITION_FORMATION_WITH_SPECIFIED_SOURCE( ' ', 'NONE', #68, .NOT_KNOWN. );
#145 = CLOSED_SHELL( '', ( #67, #59, #53, #61, #65, #57, #41, #63, #49, #55, #43, #45 ) );
#146 = ORIENTED_CLOSED_SHELL( '', *, #209, .T. );
#147 = CARTESIAN_POINT( '', ( 0.000000000000000, 0.000000000000000, 0.000000000000000 ) );
#148 = DIRECTION( '', ( 0.000000000000000, 0.000000000000000, 1.00000000000000 ) );
#149 = DIRECTION( '', ( 1.00000000000000, 0.000000000000000, 0.000000000000000 ) );
#150 =  ( LENGTH_UNIT(  )NAMED_UNIT( #77 )SI_UNIT( .MILLI., .METRE. ) );
#151 = SURFACE_SIDE_STYLE( '', ( #211 ) );
#152 = EDGE_LOOP( '', ( #212 ) );
#153 = EDGE_LOOP( '', ( #213 ) );
#154 = AXIS2_PLACEMENT_3D( '', #214, #215, #216 );
#155 = SURFACE_SIDE_STYLE( '', ( #217 ) );
#156 = EDGE_LOOP( '', ( #218 ) );
#157 = EDGE_LOOP( '', ( #219 ) );
#158 = AXIS2_PLACEMENT_3D( '', #220, #221, #222 );
#159 = SURFACE_SIDE_STYLE( '', ( #223 ) );
#160 = EDGE_LOOP( '', ( #224 ) );
#161 = EDGE_LOOP( '', ( #225 ) );
#162 = AXIS2_PLACEMENT_3D( '', #226, #227, #228 );
#163 = SURFACE_SIDE_STYLE( '', ( #229 ) );
#164 = EDGE_LOOP( '', ( #230 ) );
#165 = EDGE_LOOP( '', ( #231 ) );
#166 = AXIS2_PLACEMENT_3D( '', #232, #233, #234 );
#167 = SURFACE_SIDE_STYLE( '', ( #235 ) );
#168 = EDGE_LOOP( '', ( #236 ) );
#169 = EDGE_LOOP( '', ( #237 ) );
#170 = AXIS2_PLACEMENT_3D( '', #238, #239, #240 );
#171 = SURFACE_SIDE_STYLE( '', ( #241 ) );
#172 = EDGE_LOOP( '', ( #242 ) );
#173 = EDGE_LOOP( '', ( #243 ) );
#174 = AXIS2_PLACEMENT_3D( '', #244, #245, #246 );
#175 = SURFACE_SIDE_STYLE( '', ( #247 ) );
#176 = EDGE_LOOP( '', ( #248 ) );
#177 = EDGE_LOOP( '', ( #249 ) );
#178 = AXIS2_PLACEMENT_3D( '', #250, #251, #252 );
#179 = SURFACE_SIDE_STYLE( '', ( #253 ) );
#180 = EDGE_LOOP( '', ( #254 ) );
#181 = AXIS2_PLACEMENT_3D( '', #255, #256, #257 );
#182 = SURFACE_SIDE_STYLE( '', ( #258 ) );
#183 = EDGE_LOOP( '', ( #259 ) );
#184 = AXIS2_PLACEMENT_3D( '', #260, #261, #262 );
#185 = SURFACE_SIDE_STYLE( '', ( #263 ) );
#186 = EDGE_LOOP( '', ( #264 ) );
#187 = EDGE_LOOP( '', ( #265 ) );
#188 = AXIS2_PLACEMENT_3D( '', #266, #267, #268 );
#189 = SURFACE_SIDE_STYLE( '', ( #269 ) );
#190 = EDGE_LOOP( '', ( #270 ) );
#191 = EDGE_LOOP( '', ( #271 ) );
#192 = AXIS2_PLACEMENT_3D( '', #272, #273, #274 );
#193 = SURFACE_SIDE_STYLE( '', ( #275 ) );
#194 = EDGE_LOOP( '', ( #276 ) );
#195 = EDGE_LOOP( '', ( #277 ) );
#196 = AXIS2_PLACEMENT_3D( '', #278, #279, #280 );
#197 = SURFACE_SIDE_STYLE( '', ( #281 ) );
#198 = EDGE_LOOP( '', ( #282 ) );
#199 = EDGE_LOOP( '', ( #283 ) );
#200 = AXIS2_PLACEMENT_3D( '', #284, #285, #286 );
#201 = SURFACE_SIDE_STYLE( '', ( #287 ) );
#202 = EDGE_LOOP( '', ( #288 ) );
#203 = EDGE_LOOP( '', ( #289 ) );
#204 = AXIS2_PLACEMENT_3D( '', #290, #291, #292 );
#205 = SURFACE_SIDE_STYLE( '', ( #293 ) );
#206 = EDGE_LOOP( '', ( #294 ) );
#207 = EDGE_LOOP( '', ( #295 ) );
#208 = AXIS2_PLACEMENT_3D( '', #296, #297, #298 );
#209 = CLOSED_SHELL( '', ( #51, #47, #39 ) );
#211 = SURFACE_STYLE_FILL_AREA( #299 );
#212 = ORIENTED_EDGE( '', *, *, #300, .F. );
#213 = ORIENTED_EDGE( '', *, *, #301, .F. );
#214 = CARTESIAN_POINT( '', ( 8.50000000000000, 0.000000000000000, -0.500000000000010 ) );
#215 = DIRECTION( '', ( 0.000000000000000, 0.000000000000000, -1.00000000000000 ) );
#216 = DIRECTION( '', ( -1.00000000000000, 0.000000000000000, 0.000000000000000 ) );
#217 = SURFACE_STYLE_FILL_AREA( #302 );
#218 = ORIENTED_EDGE( '', *, *, #303, .T. );
#219 = ORIENTED_EDGE( '', *, *, #304, .F. );
#220 = CARTESIAN_POINT( '', ( 0.000000000000000, 0.000000000000000, -32.5000000000000 ) );
#221 = DIRECTION( '', ( -0.000000000000000, -0.000000000000000, 1.00000000000000 ) );
#222 = DIRECTION( '', ( 1.00000000000000, 0.000000000000000, 0.000000000000000 ) );
#223 = SURFACE_STYLE_FILL_AREA( #305 );
#224 = ORIENTED_EDGE( '', *, *, #306, .T. );
#225 = ORIENTED_EDGE( '', *, *, #304, .T. );
#226 = CARTESIAN_POINT( '', ( 0.000000000000000, 0.000000000000000, -3.50000000000000 ) );
#227 = DIRECTION( '', ( -0.000000000000000, -0.000000000000000, 1.00000000000000 ) );
#228 = DIRECTION( '', ( 1.00000000000000, 0.000000000000000, 0.000000000000000 ) );
#229 = SURFACE_STYLE_FILL_AREA( #307 );
#230 = ORIENTED_EDGE( '', *, *, #306, .F. );
#231 = ORIENTED_EDGE( '', *, *, #308, .F. );
#232 = CARTESIAN_POINT( '', ( 0.000000000000000, 0.000000000000000, 30.5000000000000 ) );
#233 = DIRECTION( '', ( 0.000000000000000, 0.000000000000000, -1.00000000000000 ) );
#234 = DIRECTION( '', ( -1.00000000000000, 0.000000000000000, 0.000000000000000 ) );
#235 = SURFACE_STYLE_FILL_AREA( #309 );
#236 = ORIENTED_EDGE( '', *, *, #310, .T. );
#237 = ORIENTED_EDGE( '', *, *, #300, .T. );
#238 = CARTESIAN_POINT( '', ( 0.000000000000000, 0.000000000000000, -0.500000000000007 ) );
#239 = DIRECTION( '', ( -0.000000000000000, 0.000000000000000, -1.00000000000000 ) );
#240 = DIRECTION( '', ( -1.00000000000000, 0.000000000000000, 0.000000000000000 ) );
#241 = SURFACE_STYLE_FILL_AREA( #311 );
#242 = ORIENTED_EDGE( '', *, *, #312, .F. );
#243 = ORIENTED_EDGE( '', *, *, #303, .F. );
#244 = CARTESIAN_POINT( '', ( 0.000000000000000, 0.000000000000000, -31.5000000000000 ) );
#245 = DIRECTION( '', ( 0.000000000000000, 0.000000000000000, 1.00000000000000 ) );
#246 = DIRECTION( '', ( 1.00000000000000, 0.000000000000000, 0.000000000000000 ) );
#247 = SURFACE_STYLE_FILL_AREA( #313 );
#248 = ORIENTED_EDGE( '', *, *, #310, .F. );
#249 = ORIENTED_EDGE( '', *, *, #301, .T. );
#250 = CARTESIAN_POINT( '', ( 0.000000000000000, 0.000000000000000, 57.1500000000000 ) );
#251 = DIRECTION( '', ( -0.000000000000000, -0.000000000000000, -1.00000000000000 ) );
#252 = DIRECTION( '', ( 1.00000000000000, 0.000000000000000, 0.000000000000000 ) );
#253 = SURFACE_STYLE_FILL_AREA( #314 );
#254 = ORIENTED_EDGE( '', *, *, #315, .T. );
#255 = CARTESIAN_POINT( '', ( 0.000000000000000, 0.000000000000000, -2.50000000000000 ) );
#256 = DIRECTION( '', ( 0.000000000000000, 0.000000000000000, 1.00000000000000 ) );
#257 = DIRECTION( '', ( 1.00000000000000, 0.000000000000000, 0.000000000000000 ) );
#258 = SURFACE_STYLE_FILL_AREA( #316 );
#259 = ORIENTED_EDGE( '', *, *, #308, .T. );
#260 = CARTESIAN_POINT( '', ( 12.5000000000000, 0.000000000000000, 32.5000000000000 ) );
#261 = DIRECTION( '', ( 0.000000000000000, 0.000000000000000, -1.00000000000000 ) );
#262 = DIRECTION( '', ( -1.00000000000000, 0.000000000000000, 0.000000000000000 ) );
#263 = SURFACE_STYLE_FILL_AREA( #317 );
#264 = ORIENTED_EDGE( '', *, *, #318, .T. );
#265 = ORIENTED_EDGE( '', *, *, #312, .T. );
#266 = CARTESIAN_POINT( '', ( 7.21313162773599E-015, 0.000000000000000, -32.5000000000000 ) );
#267 = DIRECTION( '', ( 0.000000000000000, 0.000000000000000, 1.00000000000000 ) );
#268 = DIRECTION( '', ( 1.00000000000000, 0.000000000000000, 0.000000000000000 ) );
#269 = SURFACE_STYLE_FILL_AREA( #319 );
#270 = ORIENTED_EDGE( '', *, *, #320, .F. );
#271 = ORIENTED_EDGE( '', *, *, #318, .F. );
#272 = CARTESIAN_POINT( '', ( 0.000000000000000, 0.000000000000000, -31.5000000000000 ) );
#273 = DIRECTION( '', ( 0.000000000000000, 0.000000000000000, 1.00000000000000 ) );
#274 = DIRECTION( '', ( 1.00000000000000, 0.000000000000000, 0.000000000000000 ) );
#275 = SURFACE_STYLE_FILL_AREA( #321 );
#276 = ORIENTED_EDGE( '', *, *, #322, .T. );
#277 = ORIENTED_EDGE( '', *, *, #315, .F. );
#278 = CARTESIAN_POINT( '', ( 0.000000000000000, 0.000000000000000, -22.5000000000000 ) );
#279 = DIRECTION( '', ( -0.000000000000000, 0.000000000000000, -1.00000000000000 ) );
#280 = DIRECTION( '', ( 0.000000000000000, 1.00000000000000, 0.000000000000000 ) );
#281 = SURFACE_STYLE_FILL_AREA( #323 );
#282 = ORIENTED_EDGE( '', *, *, #320, .T. );
#283 = ORIENTED_EDGE( '', *, *, #324, .T. );
#284 = CARTESIAN_POINT( '', ( 0.000000000000000, 0.000000000000000, 57.1500000000000 ) );
#285 = DIRECTION( '', ( -0.000000000000000, -0.000000000000000, -1.00000000000000 ) );
#286 = DIRECTION( '', ( 1.00000000000000, 0.000000000000000, 0.000000000000000 ) );
#287 = SURFACE_STYLE_FILL_AREA( #325 );
#288 = ORIENTED_EDGE( '', *, *, #322, .F. );
#289 = ORIENTED_EDGE( '', *, *, #326, .F. );
#290 = CARTESIAN_POINT( '', ( 0.000000000000000, 0.000000000000000, -21.2500000000000 ) );
#291 = DIRECTION( '', ( 0.000000000000000, 0.000000000000000, 1.00000000000000 ) );
#292 = DIRECTION( '', ( 1.00000000000000, 0.000000000000000, 0.000000000000000 ) );
#293 = SURFACE_STYLE_FILL_AREA( #327 );
#294 = ORIENTED_EDGE( '', *, *, #324, .F. );
#295 = ORIENTED_EDGE( '', *, *, #326, .T. );
#296 = CARTESIAN_POINT( '', ( 6.25000000000000, 0.000000000000000, -22.5000000000000 ) );
#297 = DIRECTION( '', ( 0.000000000000000, 0.000000000000000, 1.00000000000000 ) );
#298 = DIRECTION( '', ( 1.00000000000000, 0.000000000000000, 0.000000000000000 ) );
#299 = FILL_AREA_STYLE( '', ( #328 ) );
#300 = EDGE_CURVE( '', #329, #329, #330, .T. );
#301 = EDGE_CURVE( '', #331, #331, #332, .T. );
#302 = FILL_AREA_STYLE( '', ( #333 ) );
#303 = EDGE_CURVE( '', #334, #334, #335, .F. );
#304 = EDGE_CURVE( '', #336, #336, #337, .T. );
#305 = FILL_AREA_STYLE( '', ( #338 ) );
#306 = EDGE_CURVE( '', #339, #339, #340, .T. );
#307 = FILL_AREA_STYLE( '', ( #341 ) );
#308 = EDGE_CURVE( '', #342, #342, #343, .F. );
#309 = FILL_AREA_STYLE( '', ( #344 ) );
#310 = EDGE_CURVE( '', #345, #345, #346, .F. );
#311 = FILL_AREA_STYLE( '', ( #347 ) );
#312 = EDGE_CURVE( '', #348, #348, #349, .F. );
#313 = FILL_AREA_STYLE( '', ( #350 ) );
#314 = FILL_AREA_STYLE( '', ( #351 ) );
#315 = EDGE_CURVE( '', #352, #352, #353, .T. );
#316 = FILL_AREA_STYLE( '', ( #354 ) );
#317 = FILL_AREA_STYLE( '', ( #355 ) );
#318 = EDGE_CURVE( '', #356, #356, #357, .T. );
#319 = FILL_AREA_STYLE( '', ( #358 ) );
#320 = EDGE_CURVE( '', #359, #359, #360, .F. );
#321 = FILL_AREA_STYLE( '', ( #361 ) );
#322 = EDGE_CURVE( '', #362, #362, #363, .F. );
#323 = FILL_AREA_STYLE( '', ( #364 ) );
#324 = EDGE_CURVE( '', #365, #365, #366, .T. );
#325 = FILL_AREA_STYLE( '', ( #367 ) );
#326 = EDGE_CURVE( '', #368, #368, #369, .T. );
#327 = FILL_AREA_STYLE( '', ( #370 ) );
#328 = FILL_AREA_STYLE_COLOUR( '', #371 );
#329 = VERTEX_POINT( '', #372 );
#330 = CIRCLE( '', #373, 6.50000000000000 );
#331 = VERTEX_POINT( '', #374 );
#332 = CIRCLE( '', #375, 8.50000000000000 );
#333 = FILL_AREA_STYLE_COLOUR( '', #376 );
#334 = VERTEX_POINT( '', #377 );
#335 = CIRCLE( '', #378, 10.0744893497935 );
#336 = VERTEX_POINT( '', #379 );
#337 = CIRCLE( '', #380, 12.3500000000000 );
#338 = FILL_AREA_STYLE_COLOUR( '', #381 );
#339 = VERTEX_POINT( '', #382 );
#340 = CIRCLE( '', #383, 12.4916319447458 );
#341 = FILL_AREA_STYLE_COLOUR( '', #384 );
#342 = VERTEX_POINT( '', #385 );
#343 = CIRCLE( '', #386, 10.4916493056309 );
#344 = FILL_AREA_STYLE_COLOUR( '', #387 );
#345 = VERTEX_POINT( '', #388 );
#346 = CIRCLE( '', #389, 8.50000000000000 );
#347 = FILL_AREA_STYLE_COLOUR( '', #390 );
#348 = VERTEX_POINT( '', #391 );
#349 = CIRCLE( '', #392, 9.07775656144472 );
#350 = FILL_AREA_STYLE_COLOUR( '', #393 );
#351 = FILL_AREA_STYLE_COLOUR( '', #394 );
#352 = VERTEX_POINT( '', #395 );
#353 = CIRCLE( '', #396, 6.00000000000000 );
#354 = FILL_AREA_STYLE_COLOUR( '', #397 );
#355 = FILL_AREA_STYLE_COLOUR( '', #398 );
#356 = VERTEX_POINT( '', #399 );
#357 = CIRCLE( '', #400, 7.25000000000000 );
#358 = FILL_AREA_STYLE_COLOUR( '', #401 );
#359 = VERTEX_POINT( '', #402 );
#360 = CIRCLE( '', #403, 6.25000000000000 );
#361 = FILL_AREA_STYLE_COLOUR( '', #404 );
#362 = VERTEX_POINT( '', #405 );
#363 = CIRCLE( '', #406, 6.00000000000000 );
#364 = FILL_AREA_STYLE_COLOUR( '', #407 );
#365 = VERTEX_POINT( '', #408 );
#366 = CIRCLE( '', #409, 6.25000000000000 );
#367 = FILL_AREA_STYLE_COLOUR( '', #410 );
#368 = VERTEX_POINT( '', #411 );
#369 = CIRCLE( '', #412, 7.25000000000000 );
#370 = FILL_AREA_STYLE_COLOUR( '', #413 );
#371 = COLOUR_RGB( '', 0.200000002980232, 0.200000002980232, 0.200000002980232 );
#372 = CARTESIAN_POINT( '', ( -6.50000000000000, 0.000000000000000, -0.500000000000010 ) );
#373 = AXIS2_PLACEMENT_3D( '', #414, #415, #416 );
#374 = CARTESIAN_POINT( '', ( 8.50000000000000, 0.000000000000000, -0.500000000000007 ) );
#375 = AXIS2_PLACEMENT_3D( '', #417, #418, #419 );
#376 = COLOUR_RGB( '', 0.200000002980232, 0.200000002980232, 0.200000002980232 );
#377 = CARTESIAN_POINT( '', ( -10.0744893497935, 0.000000000000000, -31.5807697259524 ) );
#378 = AXIS2_PLACEMENT_3D( '', #420, #421, #422 );
#379 = CARTESIAN_POINT( '', ( 12.3500000000000, 0.000000000000000, -3.50000000000000 ) );
#380 = AXIS2_PLACEMENT_3D( '', #423, #424, #425 );
#381 = COLOUR_RGB( '', 0.200000002980232, 0.200000002980232, 0.200000002980232 );
#382 = CARTESIAN_POINT( '', ( -12.4916319447458, 0.000000000000000, 30.4916667390036 ) );
#383 = AXIS2_PLACEMENT_3D( '', #426, #427, #428 );
#384 = COLOUR_RGB( '', 0.200000002980232, 0.200000002980232, 0.200000002980232 );
#385 = CARTESIAN_POINT( '', ( -10.4916493056309, 0.000000000000000, 32.5000000000000 ) );
#386 = AXIS2_PLACEMENT_3D( '', #429, #430, #431 );
#387 = COLOUR_RGB( '', 0.866666674613953, 0.866666674613953, 0.866666674613953 );
#388 = CARTESIAN_POINT( '', ( -8.50000000000000, 0.000000000000000, -2.50000000000000 ) );
#389 = AXIS2_PLACEMENT_3D( '', #432, #433, #434 );
#390 = COLOUR_RGB( '', 0.200000002980232, 0.200000002980232, 0.200000002980232 );
#391 = CARTESIAN_POINT( '', ( 9.07775656144472, 0.000000000000000, -32.5000000000000 ) );
#392 = AXIS2_PLACEMENT_3D( '', #435, #436, #437 );
#393 = COLOUR_RGB( '', 0.200000002980232, 0.200000002980232, 0.200000002980232 );
#394 = COLOUR_RGB( '', 0.866666674613953, 0.866666674613953, 0.866666674613953 );
#395 = CARTESIAN_POINT( '', ( 0.000000000000000, 6.00000000000000, -2.50000000000000 ) );
#396 = AXIS2_PLACEMENT_3D( '', #438, #439, #440 );
#397 = COLOUR_RGB( '', 0.200000002980232, 0.200000002980232, 0.200000002980232 );
#398 = COLOUR_RGB( '', 0.200000002980232, 0.200000002980232, 0.200000002980232 );
#399 = CARTESIAN_POINT( '', ( 7.25000000000000, 0.000000000000000, -32.5000000000000 ) );
#400 = AXIS2_PLACEMENT_3D( '', #441, #442, #443 );
#401 = COLOUR_RGB( '', 0.200000002980232, 0.200000002980232, 0.200000002980232 );
#402 = CARTESIAN_POINT( '', ( 6.25000000000000, 0.000000000000000, -31.5000000000000 ) );
#403 = AXIS2_PLACEMENT_3D( '', #444, #445, #446 );
#404 = COLOUR_RGB( '', 0.866666674613953, 0.866666674613953, 0.866666674613953 );
#405 = CARTESIAN_POINT( '', ( 6.00000000000000, 0.000000000000000, -21.2500000000000 ) );
#406 = AXIS2_PLACEMENT_3D( '', #447, #448, #449 );
#407 = COLOUR_RGB( '', 0.200000002980232, 0.200000002980232, 0.200000002980232 );
#408 = CARTESIAN_POINT( '', ( 6.25000000000000, 0.000000000000000, -22.5000000000000 ) );
#409 = AXIS2_PLACEMENT_3D( '', #450, #451, #452 );
#410 = COLOUR_RGB( '', 0.866666674613953, 0.866666674613953, 0.866666674613953 );
#411 = CARTESIAN_POINT( '', ( 7.25000000000000, 0.000000000000000, -22.5000000000000 ) );
#412 = AXIS2_PLACEMENT_3D( '', #453, #454, #455 );
#413 = COLOUR_RGB( '', 0.200000002980232, 0.200000002980232, 0.200000002980232 );
#414 = CARTESIAN_POINT( '', ( 0.000000000000000, 0.000000000000000, -0.500000000000010 ) );
#415 = DIRECTION( '', ( 0.000000000000000, 0.000000000000000, -1.00000000000000 ) );
#416 = DIRECTION( '', ( -1.00000000000000, 0.000000000000000, 0.000000000000000 ) );
#417 = CARTESIAN_POINT( '', ( 0.000000000000000, 0.000000000000000, -0.500000000000007 ) );
#418 = DIRECTION( '', ( 0.000000000000000, 0.000000000000000, 1.00000000000000 ) );
#419 = DIRECTION( '', ( 1.00000000000000, 0.000000000000000, 0.000000000000000 ) );
#420 = CARTESIAN_POINT( '', ( 0.000000000000000, 0.000000000000000, -31.5807697259524 ) );
#421 = DIRECTION( '', ( 0.000000000000000, 0.000000000000000, -1.00000000000000 ) );
#422 = DIRECTION( '', ( -1.00000000000000, 0.000000000000000, 0.000000000000000 ) );
#423 = CARTESIAN_POINT( '', ( 0.000000000000000, 0.000000000000000, -3.50000000000000 ) );
#424 = DIRECTION( '', ( 0.000000000000000, 0.000000000000000, 1.00000000000000 ) );
#425 = DIRECTION( '', ( 1.00000000000000, 0.000000000000000, 0.000000000000000 ) );
#426 = CARTESIAN_POINT( '', ( 0.000000000000000, 0.000000000000000, 30.4916667390036 ) );
#427 = DIRECTION( '', ( 0.000000000000000, 0.000000000000000, -1.00000000000000 ) );
#428 = DIRECTION( '', ( -1.00000000000000, 0.000000000000000, 0.000000000000000 ) );
#429 = CARTESIAN_POINT( '', ( 0.000000000000000, 0.000000000000000, 32.5000000000000 ) );
#430 = DIRECTION( '', ( 0.000000000000000, 0.000000000000000, -1.00000000000000 ) );
#431 = DIRECTION( '', ( -1.00000000000000, 0.000000000000000, 0.000000000000000 ) );
#432 = CARTESIAN_POINT( '', ( 0.000000000000000, 0.000000000000000, -2.50000000000000 ) );
#433 = DIRECTION( '', ( 0.000000000000000, 0.000000000000000, -1.00000000000000 ) );
#434 = DIRECTION( '', ( -1.00000000000000, 0.000000000000000, 0.000000000000000 ) );
#435 = CARTESIAN_POINT( '', ( 0.000000000000000, 0.000000000000000, -32.5000000000000 ) );
#436 = DIRECTION( '', ( 0.000000000000000, 0.000000000000000, 1.00000000000000 ) );
#437 = DIRECTION( '', ( 1.00000000000000, 0.000000000000000, 0.000000000000000 ) );
#438 = CARTESIAN_POINT( '', ( 0.000000000000000, 0.000000000000000, -2.50000000000000 ) );
#439 = DIRECTION( '', ( 0.000000000000000, 0.000000000000000, -1.00000000000000 ) );
#440 = DIRECTION( '', ( 0.000000000000000, 1.00000000000000, 0.000000000000000 ) );
#441 = CARTESIAN_POINT( '', ( 0.000000000000000, 0.000000000000000, -32.5000000000000 ) );
#442 = DIRECTION( '', ( 0.000000000000000, 0.000000000000000, 1.00000000000000 ) );
#443 = DIRECTION( '', ( 1.00000000000000, 0.000000000000000, 0.000000000000000 ) );
#444 = CARTESIAN_POINT( '', ( 0.000000000000000, 0.000000000000000, -31.5000000000000 ) );
#445 = DIRECTION( '', ( 0.000000000000000, 0.000000000000000, 1.00000000000000 ) );
#446 = DIRECTION( '', ( 1.00000000000000, 0.000000000000000, 0.000000000000000 ) );
#447 = CARTESIAN_POINT( '', ( 0.000000000000000, 0.000000000000000, -21.2500000000000 ) );
#448 = DIRECTION( '', ( 0.000000000000000, 0.000000000000000, 1.00000000000000 ) );
#449 = DIRECTION( '', ( 1.00000000000000, 0.000000000000000, 0.000000000000000 ) );
#450 = CARTESIAN_POINT( '', ( 0.000000000000000, 0.000000000000000, -22.5000000000000 ) );
#451 = DIRECTION( '', ( 0.000000000000000, 0.000000000000000, 1.00000000000000 ) );
#452 = DIRECTION( '', ( 1.00000000000000, 0.000000000000000, 0.000000000000000 ) );
#453 = CARTESIAN_POINT( '', ( 0.000000000000000, 0.000000000000000, -22.5000000000000 ) );
#454 = DIRECTION( '', ( 0.000000000000000, 0.000000000000000, 1.00000000000000 ) );
#455 = DIRECTION( '', ( 1.00000000000000, 0.000000000000000, 0.000000000000000 ) );
ENDSEC;
END-ISO-10303-21;
