ISO-10303-21;
HEADER;
FILE_DESCRIPTION( ( 'Unknown' ), '1' );
FILE_NAME( 'E:/98-Dis_3D_per_controllo/MC/6136060_MC29x115/6136060_MC29x115.stp', 'Unknown', ( 'Unknown' ), ( 'Unknown' ), 'PSStep 11.0', 'Unknown', '  ' );
FILE_SCHEMA( ( 'AUTOMOTIVE_DESIGN { 1 0 10303 214 1 1 1 1 }' ) );
ENDSEC;
DATA;
#1 = MECHANICAL_DESIGN_GEOMETRIC_PRESENTATION_REPRESENTATION( ' ', ( #10, #11, #12, #13, #14, #15, #16, #17, #18, #19 ), #6 );
#2 = PRODUCT_DEFINITION_CONTEXT( '', #20, 'design' );
#3 = APPLICATION_PROTOCOL_DEFINITION( 'INTERNATIONAL STANDARD', 'automotive_design', 2001, #20 );
#4 = PRODUCT_CATEGORY_RELATIONSHIP( 'NONE', 'NONE', #21, #22 );
#5 = SHAPE_DEFINITION_REPRESENTATION( #23, #24 );
#6 =  ( GEOMETRIC_REPRESENTATION_CONTEXT( 3 )GLOBAL_UNCERTAINTY_ASSIGNED_CONTEXT( ( #27 ) )GLOBAL_UNIT_ASSIGNED_CONTEXT( ( #29, #30, #31 ) )REPRESENTATION_CONTEXT( 'NONE', 'WORKSPACE' ) );
#10 = STYLED_ITEM( '', ( #33 ), #34 );
#11 = STYLED_ITEM( '', ( #35 ), #36 );
#12 = STYLED_ITEM( '', ( #37 ), #38 );
#13 = STYLED_ITEM( '', ( #39 ), #40 );
#14 = STYLED_ITEM( '', ( #41 ), #42 );
#15 = STYLED_ITEM( '', ( #43 ), #44 );
#16 = STYLED_ITEM( '', ( #45 ), #46 );
#17 = STYLED_ITEM( '', ( #47 ), #48 );
#18 = STYLED_ITEM( '', ( #49 ), #50 );
#19 = STYLED_ITEM( '', ( #51 ), #52 );
#20 = APPLICATION_CONTEXT( 'core data for automotive mechanical design processes' );
#21 = PRODUCT_CATEGORY( 'part', 'NONE' );
#22 = PRODUCT_RELATED_PRODUCT_CATEGORY( 'detail', ' ', ( #53 ) );
#23 = PRODUCT_DEFINITION_SHAPE( 'NONE', 'NONE', #54 );
#24 = ADVANCED_BREP_SHAPE_REPRESENTATION( '1', ( #55, #56 ), #6 );
#27 = UNCERTAINTY_MEASURE_WITH_UNIT( LENGTH_MEASURE( 0.00100000000000000 ), #29, '', '' );
#29 =  ( CONVERSION_BASED_UNIT( 'MILLIMETRE', #59 )LENGTH_UNIT(  )NAMED_UNIT( #62 ) );
#30 =  ( NAMED_UNIT( #64 )PLANE_ANGLE_UNIT(  )SI_UNIT( $, .RADIAN. ) );
#31 =  ( NAMED_UNIT( #64 )SI_UNIT( $, .STERADIAN. )SOLID_ANGLE_UNIT(  ) );
#33 = PRESENTATION_STYLE_ASSIGNMENT( ( #70 ) );
#34 = ADVANCED_FACE( '', ( #71, #72 ), #73, .T. );
#35 = PRESENTATION_STYLE_ASSIGNMENT( ( #74 ) );
#36 = ADVANCED_FACE( '', ( #75 ), #76, .F. );
#37 = PRESENTATION_STYLE_ASSIGNMENT( ( #77 ) );
#38 = ADVANCED_FACE( '', ( #78, #79 ), #80, .T. );
#39 = PRESENTATION_STYLE_ASSIGNMENT( ( #81 ) );
#40 = ADVANCED_FACE( '', ( #82, #83 ), #84, .F. );
#41 = PRESENTATION_STYLE_ASSIGNMENT( ( #85 ) );
#42 = ADVANCED_FACE( '', ( #86, #87 ), #88, .F. );
#43 = PRESENTATION_STYLE_ASSIGNMENT( ( #89 ) );
#44 = ADVANCED_FACE( '', ( #90, #91 ), #92, .F. );
#45 = PRESENTATION_STYLE_ASSIGNMENT( ( #93 ) );
#46 = ADVANCED_FACE( '', ( #94, #95 ), #96, .T. );
#47 = PRESENTATION_STYLE_ASSIGNMENT( ( #97 ) );
#48 = ADVANCED_FACE( '', ( #98, #99 ), #100, .F. );
#49 = PRESENTATION_STYLE_ASSIGNMENT( ( #101 ) );
#50 = ADVANCED_FACE( '', ( #102, #103 ), #104, .T. );
#51 = PRESENTATION_STYLE_ASSIGNMENT( ( #105 ) );
#52 = ADVANCED_FACE( '', ( #106, #107 ), #108, .T. );
#53 = PRODUCT( '1', '1', 'PART-1-DESC', ( #109 ) );
#54 = PRODUCT_DEFINITION( 'NONE', 'NONE', #110, #2 );
#55 = MANIFOLD_SOLID_BREP( '1', #111 );
#56 = AXIS2_PLACEMENT_3D( '', #112, #113, #114 );
#59 = LENGTH_MEASURE_WITH_UNIT( LENGTH_MEASURE( 1.00000000000000 ), #115 );
#62 = DIMENSIONAL_EXPONENTS( 1.00000000000000, 0.000000000000000, 0.000000000000000, 0.000000000000000, 0.000000000000000, 0.000000000000000, 0.000000000000000 );
#64 = DIMENSIONAL_EXPONENTS( 0.000000000000000, 0.000000000000000, 0.000000000000000, 0.000000000000000, 0.000000000000000, 0.000000000000000, 0.000000000000000 );
#70 = SURFACE_STYLE_USAGE( .BOTH., #116 );
#71 = FACE_OUTER_BOUND( '', #117, .T. );
#72 = FACE_OUTER_BOUND( '', #118, .T. );
#73 = TOROIDAL_SURFACE( '', #119, 12.4958861887828, 2.00000000000000 );
#74 = SURFACE_STYLE_USAGE( .BOTH., #120 );
#75 = FACE_OUTER_BOUND( '', #121, .T. );
#76 = PLANE( '', #122 );
#77 = SURFACE_STYLE_USAGE( .BOTH., #123 );
#78 = FACE_BOUND( '', #124, .T. );
#79 = FACE_OUTER_BOUND( '', #125, .T. );
#80 = CONICAL_SURFACE( '', #126, 11.2500000000000, 0.0736759259292283 );
#81 = SURFACE_STYLE_USAGE( .BOTH., #127 );
#82 = FACE_OUTER_BOUND( '', #128, .T. );
#83 = FACE_BOUND( '', #129, .T. );
#84 = CONICAL_SURFACE( '', #130, 5.05300000000000, 1.02974425867665 );
#85 = SURFACE_STYLE_USAGE( .BOTH., #131 );
#86 = FACE_OUTER_BOUND( '', #132, .T. );
#87 = FACE_OUTER_BOUND( '', #133, .T. );
#88 = CYLINDRICAL_SURFACE( '', #134, 5.05300000000000 );
#89 = SURFACE_STYLE_USAGE( .BOTH., #135 );
#90 = FACE_BOUND( '', #136, .T. );
#91 = FACE_OUTER_BOUND( '', #137, .T. );
#92 = PLANE( '', #138 );
#93 = SURFACE_STYLE_USAGE( .BOTH., #139 );
#94 = FACE_OUTER_BOUND( '', #140, .T. );
#95 = FACE_BOUND( '', #141, .T. );
#96 = CONICAL_SURFACE( '', #142, 14.3500000000000, 0.00205479162865070 );
#97 = SURFACE_STYLE_USAGE( .BOTH., #143 );
#98 = FACE_OUTER_BOUND( '', #144, .T. );
#99 = FACE_OUTER_BOUND( '', #145, .T. );
#100 = CYLINDRICAL_SURFACE( '', #146, 5.05300000000000 );
#101 = SURFACE_STYLE_USAGE( .BOTH., #147 );
#102 = FACE_OUTER_BOUND( '', #148, .T. );
#103 = FACE_OUTER_BOUND( '', #149, .T. );
#104 = TOROIDAL_SURFACE( '', #150, 6.55300000000000, 1.50000000000000 );
#105 = SURFACE_STYLE_USAGE( .BOTH., #151 );
#106 = FACE_OUTER_BOUND( '', #152, .T. );
#107 = FACE_OUTER_BOUND( '', #153, .T. );
#108 = TOROIDAL_SURFACE( '', #154, 10.3210893007139, 1.00000000000000 );
#109 = PRODUCT_CONTEXT( '', #20, 'mechanical' );
#110 = PRODUCT_DEFINITION_FORMATION_WITH_SPECIFIED_SOURCE( ' ', 'NONE', #53, .NOT_KNOWN. );
#111 = CLOSED_SHELL( '', ( #48, #34, #40, #52, #42, #50, #36, #44, #38, #46 ) );
#112 = CARTESIAN_POINT( '', ( 0.000000000000000, 0.000000000000000, 0.000000000000000 ) );
#113 = DIRECTION( '', ( 0.000000000000000, 0.000000000000000, 1.00000000000000 ) );
#114 = DIRECTION( '', ( 1.00000000000000, 0.000000000000000, 0.000000000000000 ) );
#115 =  ( LENGTH_UNIT(  )NAMED_UNIT( #62 )SI_UNIT( .MILLI., .METRE. ) );
#116 = SURFACE_SIDE_STYLE( '', ( #156 ) );
#117 = EDGE_LOOP( '', ( #157 ) );
#118 = EDGE_LOOP( '', ( #158 ) );
#119 = AXIS2_PLACEMENT_3D( '', #159, #160, #161 );
#120 = SURFACE_SIDE_STYLE( '', ( #162 ) );
#121 = EDGE_LOOP( '', ( #163 ) );
#122 = AXIS2_PLACEMENT_3D( '', #164, #165, #166 );
#123 = SURFACE_SIDE_STYLE( '', ( #167 ) );
#124 = EDGE_LOOP( '', ( #168 ) );
#125 = EDGE_LOOP( '', ( #169 ) );
#126 = AXIS2_PLACEMENT_3D( '', #170, #171, #172 );
#127 = SURFACE_SIDE_STYLE( '', ( #173 ) );
#128 = EDGE_LOOP( '', ( #174 ) );
#129 = VERTEX_LOOP( '', #175 );
#130 = AXIS2_PLACEMENT_3D( '', #176, #177, #178 );
#131 = SURFACE_SIDE_STYLE( '', ( #179 ) );
#132 = EDGE_LOOP( '', ( #180 ) );
#133 = EDGE_LOOP( '', ( #181 ) );
#134 = AXIS2_PLACEMENT_3D( '', #182, #183, #184 );
#135 = SURFACE_SIDE_STYLE( '', ( #185 ) );
#136 = EDGE_LOOP( '', ( #186 ) );
#137 = EDGE_LOOP( '', ( #187 ) );
#138 = AXIS2_PLACEMENT_3D( '', #188, #189, #190 );
#139 = SURFACE_SIDE_STYLE( '', ( #191 ) );
#140 = EDGE_LOOP( '', ( #192 ) );
#141 = EDGE_LOOP( '', ( #193 ) );
#142 = AXIS2_PLACEMENT_3D( '', #194, #195, #196 );
#143 = SURFACE_SIDE_STYLE( '', ( #197 ) );
#144 = EDGE_LOOP( '', ( #198 ) );
#145 = EDGE_LOOP( '', ( #199 ) );
#146 = AXIS2_PLACEMENT_3D( '', #200, #201, #202 );
#147 = SURFACE_SIDE_STYLE( '', ( #203 ) );
#148 = EDGE_LOOP( '', ( #204 ) );
#149 = EDGE_LOOP( '', ( #205 ) );
#150 = AXIS2_PLACEMENT_3D( '', #206, #207, #208 );
#151 = SURFACE_SIDE_STYLE( '', ( #209 ) );
#152 = EDGE_LOOP( '', ( #210 ) );
#153 = EDGE_LOOP( '', ( #211 ) );
#154 = AXIS2_PLACEMENT_3D( '', #212, #213, #214 );
#156 = SURFACE_STYLE_FILL_AREA( #215 );
#157 = ORIENTED_EDGE( '', *, *, #216, .F. );
#158 = ORIENTED_EDGE( '', *, *, #217, .F. );
#159 = CARTESIAN_POINT( '', ( 1.23775379339770E-014, 0.000000000000000, 55.5000000000000 ) );
#160 = DIRECTION( '', ( 0.000000000000000, 0.000000000000000, -1.00000000000000 ) );
#161 = DIRECTION( '', ( -1.00000000000000, 0.000000000000000, 0.000000000000000 ) );
#162 = SURFACE_STYLE_FILL_AREA( #218 );
#163 = ORIENTED_EDGE( '', *, *, #217, .T. );
#164 = CARTESIAN_POINT( '', ( 14.5000000000000, 0.000000000000000, 57.5000000000000 ) );
#165 = DIRECTION( '', ( 0.000000000000000, 0.000000000000000, -1.00000000000000 ) );
#166 = DIRECTION( '', ( -1.00000000000000, 0.000000000000000, 0.000000000000000 ) );
#167 = SURFACE_STYLE_FILL_AREA( #219 );
#168 = ORIENTED_EDGE( '', *, *, #220, .T. );
#169 = ORIENTED_EDGE( '', *, *, #221, .F. );
#170 = CARTESIAN_POINT( '', ( 1.23775379339770E-014, 0.000000000000000, -57.5000000000000 ) );
#171 = DIRECTION( '', ( -0.000000000000000, -0.000000000000000, 1.00000000000000 ) );
#172 = DIRECTION( '', ( 1.00000000000000, 0.000000000000000, 0.000000000000000 ) );
#173 = SURFACE_STYLE_FILL_AREA( #222 );
#174 = ORIENTED_EDGE( '', *, *, #223, .F. );
#175 = VERTEX_POINT( '', #224 );
#176 = CARTESIAN_POINT( '', ( 3.49655200626575E-015, 0.000000000000000, -7.50000000000000 ) );
#177 = DIRECTION( '', ( 0.000000000000000, -0.000000000000000, -1.00000000000000 ) );
#178 = DIRECTION( '', ( 0.000000000000000, -1.00000000000000, 0.000000000000000 ) );
#179 = SURFACE_STYLE_FILL_AREA( #225 );
#180 = ORIENTED_EDGE( '', *, *, #226, .T. );
#181 = ORIENTED_EDGE( '', *, *, #227, .F. );
#182 = CARTESIAN_POINT( '', ( 3.49655200626575E-015, 0.000000000000000, -57.5000000000000 ) );
#183 = DIRECTION( '', ( -0.000000000000000, 0.000000000000000, -1.00000000000000 ) );
#184 = DIRECTION( '', ( 0.000000000000000, 1.00000000000000, 0.000000000000000 ) );
#185 = SURFACE_STYLE_FILL_AREA( #228 );
#186 = ORIENTED_EDGE( '', *, *, #229, .T. );
#187 = ORIENTED_EDGE( '', *, *, #230, .T. );
#188 = CARTESIAN_POINT( '', ( 1.23775379339770E-014, 0.000000000000000, -57.5000000000000 ) );
#189 = DIRECTION( '', ( 0.000000000000000, 0.000000000000000, 1.00000000000000 ) );
#190 = DIRECTION( '', ( 1.00000000000000, 0.000000000000000, 0.000000000000000 ) );
#191 = SURFACE_STYLE_FILL_AREA( #231 );
#192 = ORIENTED_EDGE( '', *, *, #216, .T. );
#193 = ORIENTED_EDGE( '', *, *, #221, .T. );
#194 = CARTESIAN_POINT( '', ( 1.23775379339770E-014, 0.000000000000000, -15.5000000000000 ) );
#195 = DIRECTION( '', ( -0.000000000000000, -0.000000000000000, 1.00000000000000 ) );
#196 = DIRECTION( '', ( 1.00000000000000, 0.000000000000000, 0.000000000000000 ) );
#197 = SURFACE_STYLE_FILL_AREA( #232 );
#198 = ORIENTED_EDGE( '', *, *, #223, .T. );
#199 = ORIENTED_EDGE( '', *, *, #227, .T. );
#200 = CARTESIAN_POINT( '', ( 3.49655200626575E-015, 0.000000000000000, -57.5000000000000 ) );
#201 = DIRECTION( '', ( -0.000000000000000, 0.000000000000000, -1.00000000000000 ) );
#202 = DIRECTION( '', ( 0.000000000000000, 1.00000000000000, 0.000000000000000 ) );
#203 = SURFACE_STYLE_FILL_AREA( #233 );
#204 = ORIENTED_EDGE( '', *, *, #226, .F. );
#205 = ORIENTED_EDGE( '', *, *, #229, .F. );
#206 = CARTESIAN_POINT( '', ( 3.49655200626575E-015, 0.000000000000000, -56.0000000000000 ) );
#207 = DIRECTION( '', ( 0.000000000000000, 0.000000000000000, 1.00000000000000 ) );
#208 = DIRECTION( '', ( 1.00000000000000, 0.000000000000000, 0.000000000000000 ) );
#209 = SURFACE_STYLE_FILL_AREA( #234 );
#210 = ORIENTED_EDGE( '', *, *, #230, .F. );
#211 = ORIENTED_EDGE( '', *, *, #220, .F. );
#212 = CARTESIAN_POINT( '', ( 1.23775379339770E-014, 0.000000000000000, -56.5000000000000 ) );
#213 = DIRECTION( '', ( 0.000000000000000, 0.000000000000000, 1.00000000000000 ) );
#214 = DIRECTION( '', ( 1.00000000000000, 0.000000000000000, 0.000000000000000 ) );
#215 = FILL_AREA_STYLE( '', ( #235 ) );
#216 = EDGE_CURVE( '', #236, #236, #237, .T. );
#217 = EDGE_CURVE( '', #238, #238, #239, .F. );
#218 = FILL_AREA_STYLE( '', ( #240 ) );
#219 = FILL_AREA_STYLE( '', ( #241 ) );
#220 = EDGE_CURVE( '', #242, #242, #243, .F. );
#221 = EDGE_CURVE( '', #244, #244, #245, .T. );
#222 = FILL_AREA_STYLE( '', ( #246 ) );
#223 = EDGE_CURVE( '', #247, #247, #248, .T. );
#224 = CARTESIAN_POINT( '', ( 3.49655200626575E-015, 0.000000000000000, -4.46385129205374 ) );
#225 = FILL_AREA_STYLE( '', ( #249 ) );
#226 = EDGE_CURVE( '', #250, #250, #251, .F. );
#227 = EDGE_CURVE( '', #252, #252, #253, .T. );
#228 = FILL_AREA_STYLE( '', ( #254 ) );
#229 = EDGE_CURVE( '', #255, #255, #256, .T. );
#230 = EDGE_CURVE( '', #257, #257, #258, .F. );
#231 = FILL_AREA_STYLE( '', ( #259 ) );
#232 = FILL_AREA_STYLE( '', ( #260 ) );
#233 = FILL_AREA_STYLE( '', ( #261 ) );
#234 = FILL_AREA_STYLE( '', ( #262 ) );
#235 = FILL_AREA_STYLE_COLOUR( '', #263 );
#236 = VERTEX_POINT( '', #264 );
#237 = CIRCLE( '', #265, 14.4958819666157 );
#238 = VERTEX_POINT( '', #266 );
#239 = CIRCLE( '', #267, 12.4958861887828 );
#240 = FILL_AREA_STYLE_COLOUR( '', #268 );
#241 = FILL_AREA_STYLE_COLOUR( '', #269 );
#242 = VERTEX_POINT( '', #270 );
#243 = CIRCLE( '', #271, 11.3183764571579 );
#244 = VERTEX_POINT( '', #272 );
#245 = CIRCLE( '', #273, 14.3500000000000 );
#246 = FILL_AREA_STYLE_COLOUR( '', #274 );
#247 = VERTEX_POINT( '', #275 );
#248 = CIRCLE( '', #276, 5.05300000000000 );
#249 = FILL_AREA_STYLE_COLOUR( '', #277 );
#250 = VERTEX_POINT( '', #278 );
#251 = CIRCLE( '', #279, 5.05300000000000 );
#252 = VERTEX_POINT( '', #280 );
#253 = CIRCLE( '', #281, 5.05300000000000 );
#254 = FILL_AREA_STYLE_COLOUR( '', #282 );
#255 = VERTEX_POINT( '', #283 );
#256 = CIRCLE( '', #284, 6.55300000000000 );
#257 = VERTEX_POINT( '', #285 );
#258 = CIRCLE( '', #286, 10.3210893007139 );
#259 = FILL_AREA_STYLE_COLOUR( '', #287 );
#260 = FILL_AREA_STYLE_COLOUR( '', #288 );
#261 = FILL_AREA_STYLE_COLOUR( '', #289 );
#262 = FILL_AREA_STYLE_COLOUR( '', #290 );
#263 = COLOUR_RGB( '', 0.200000002980232, 0.200000002980232, 0.200000002980232 );
#264 = CARTESIAN_POINT( '', ( -14.4958819666157, 0.000000000000000, 55.4958904196345 ) );
#265 = AXIS2_PLACEMENT_3D( '', #291, #292, #293 );
#266 = CARTESIAN_POINT( '', ( -12.4958861887828, 0.000000000000000, 57.5000000000000 ) );
#267 = AXIS2_PLACEMENT_3D( '', #294, #295, #296 );
#268 = COLOUR_RGB( '', 0.200000002980232, 0.200000002980232, 0.200000002980232 );
#269 = COLOUR_RGB( '', 0.200000002980232, 0.200000002980232, 0.200000002980232 );
#270 = CARTESIAN_POINT( '', ( -11.3183764571579, 0.000000000000000, -56.5736092901185 ) );
#271 = AXIS2_PLACEMENT_3D( '', #297, #298, #299 );
#272 = CARTESIAN_POINT( '', ( 14.3500000000000, 0.000000000000000, -15.5000000000000 ) );
#273 = AXIS2_PLACEMENT_3D( '', #300, #301, #302 );
#274 = COLOUR_RGB( '', 0.200000002980232, 0.200000002980232, 0.200000002980232 );
#275 = CARTESIAN_POINT( '', ( 3.49655200626575E-015, -5.05300000000000, -7.50000000000000 ) );
#276 = AXIS2_PLACEMENT_3D( '', #303, #304, #305 );
#277 = COLOUR_RGB( '', 0.752941191196442, 0.752941191196442, 0.752941191196442 );
#278 = CARTESIAN_POINT( '', ( 5.05300000000000, 0.000000000000000, -56.0000000000000 ) );
#279 = AXIS2_PLACEMENT_3D( '', #306, #307, #308 );
#280 = CARTESIAN_POINT( '', ( 3.49655200626575E-015, 5.05300000000000, -17.5000000000000 ) );
#281 = AXIS2_PLACEMENT_3D( '', #309, #310, #311 );
#282 = COLOUR_RGB( '', 0.200000002980232, 0.200000002980232, 0.200000002980232 );
#283 = CARTESIAN_POINT( '', ( 6.55300000000000, 0.000000000000000, -57.5000000000000 ) );
#284 = AXIS2_PLACEMENT_3D( '', #312, #313, #314 );
#285 = CARTESIAN_POINT( '', ( 10.3210893007139, 0.000000000000000, -57.5000000000000 ) );
#286 = AXIS2_PLACEMENT_3D( '', #315, #316, #317 );
#287 = COLOUR_RGB( '', 0.200000002980232, 0.200000002980232, 0.200000002980232 );
#288 = COLOUR_RGB( '', 0.200000002980232, 0.200000002980232, 0.200000002980232 );
#289 = COLOUR_RGB( '', 0.200000002980232, 0.200000002980232, 0.200000002980232 );
#290 = COLOUR_RGB( '', 0.200000002980232, 0.200000002980232, 0.200000002980232 );
#291 = CARTESIAN_POINT( '', ( 1.23775379339770E-014, 0.000000000000000, 55.4958904196345 ) );
#292 = DIRECTION( '', ( 0.000000000000000, 0.000000000000000, -1.00000000000000 ) );
#293 = DIRECTION( '', ( -1.00000000000000, 0.000000000000000, 0.000000000000000 ) );
#294 = CARTESIAN_POINT( '', ( 1.23775379339770E-014, 0.000000000000000, 57.5000000000000 ) );
#295 = DIRECTION( '', ( 0.000000000000000, 0.000000000000000, -1.00000000000000 ) );
#296 = DIRECTION( '', ( -1.00000000000000, 0.000000000000000, 0.000000000000000 ) );
#297 = CARTESIAN_POINT( '', ( 1.23775379339770E-014, 0.000000000000000, -56.5736092901185 ) );
#298 = DIRECTION( '', ( 0.000000000000000, 0.000000000000000, -1.00000000000000 ) );
#299 = DIRECTION( '', ( -1.00000000000000, 0.000000000000000, 0.000000000000000 ) );
#300 = CARTESIAN_POINT( '', ( 1.23775379339770E-014, 0.000000000000000, -15.5000000000000 ) );
#301 = DIRECTION( '', ( 0.000000000000000, 0.000000000000000, 1.00000000000000 ) );
#302 = DIRECTION( '', ( 1.00000000000000, 0.000000000000000, 0.000000000000000 ) );
#303 = CARTESIAN_POINT( '', ( 3.49655200626575E-015, 0.000000000000000, -7.50000000000000 ) );
#304 = DIRECTION( '', ( 0.000000000000000, 0.000000000000000, 1.00000000000000 ) );
#305 = DIRECTION( '', ( 0.000000000000000, -1.00000000000000, 0.000000000000000 ) );
#306 = CARTESIAN_POINT( '', ( 3.49655200626575E-015, 0.000000000000000, -56.0000000000000 ) );
#307 = DIRECTION( '', ( 0.000000000000000, 0.000000000000000, 1.00000000000000 ) );
#308 = DIRECTION( '', ( 1.00000000000000, 0.000000000000000, 0.000000000000000 ) );
#309 = CARTESIAN_POINT( '', ( 3.49655200626575E-015, 0.000000000000000, -17.5000000000000 ) );
#310 = DIRECTION( '', ( 0.000000000000000, 0.000000000000000, -1.00000000000000 ) );
#311 = DIRECTION( '', ( 0.000000000000000, 1.00000000000000, 0.000000000000000 ) );
#312 = CARTESIAN_POINT( '', ( 3.49655200626575E-015, 0.000000000000000, -57.5000000000000 ) );
#313 = DIRECTION( '', ( 0.000000000000000, 0.000000000000000, 1.00000000000000 ) );
#314 = DIRECTION( '', ( 1.00000000000000, 0.000000000000000, 0.000000000000000 ) );
#315 = CARTESIAN_POINT( '', ( 1.23775379339770E-014, 0.000000000000000, -57.5000000000000 ) );
#316 = DIRECTION( '', ( 0.000000000000000, 0.000000000000000, 1.00000000000000 ) );
#317 = DIRECTION( '', ( 1.00000000000000, 0.000000000000000, 0.000000000000000 ) );
ENDSEC;
END-ISO-10303-21;
