ISO-10303-21;
HEADER;
FILE_DESCRIPTION( ( 'Unknown' ), '1' );
FILE_NAME( '//SBS2003/HD_Usb/Disegni/10_GAMM_CD/2- Gamm_STEP/03 - MANOPOLE/03_16.2-BI/6135205_BI22_M10x85.stp', 'Unknown', ( 'Unknown' ), ( 'Unknown' ), 'PSStep 11.0', 'Unknown', '  ' );
FILE_SCHEMA( ( 'AUTOMOTIVE_DESIGN { 1 0 10303 214 1 1 1 1 }' ) );
ENDSEC;
DATA;
#1 = MECHANICAL_DESIGN_GEOMETRIC_PRESENTATION_REPRESENTATION( ' ', ( #10, #11, #12, #13, #14, #15, #16, #17, #18, #19, #20, #21, #22, #23, #24, #25, #26 ), #6 );
#2 = PRODUCT_DEFINITION_CONTEXT( '', #27, 'design' );
#3 = APPLICATION_PROTOCOL_DEFINITION( 'INTERNATIONAL STANDARD', 'automotive_design', 2001, #27 );
#4 = PRODUCT_CATEGORY_RELATIONSHIP( 'NONE', 'NONE', #28, #29 );
#5 = SHAPE_DEFINITION_REPRESENTATION( #30, #31 );
#6 =  ( GEOMETRIC_REPRESENTATION_CONTEXT( 3 )GLOBAL_UNCERTAINTY_ASSIGNED_CONTEXT( ( #34 ) )GLOBAL_UNIT_ASSIGNED_CONTEXT( ( #36, #37, #38 ) )REPRESENTATION_CONTEXT( 'NONE', 'WORKSPACE' ) );
#10 = STYLED_ITEM( '', ( #40 ), #41 );
#11 = STYLED_ITEM( '', ( #42 ), #43 );
#12 = STYLED_ITEM( '', ( #44 ), #45 );
#13 = STYLED_ITEM( '', ( #46 ), #47 );
#14 = STYLED_ITEM( '', ( #48 ), #49 );
#15 = STYLED_ITEM( '', ( #50 ), #51 );
#16 = STYLED_ITEM( '', ( #52 ), #53 );
#17 = STYLED_ITEM( '', ( #54 ), #55 );
#18 = STYLED_ITEM( '', ( #56 ), #57 );
#19 = STYLED_ITEM( '', ( #58 ), #59 );
#20 = STYLED_ITEM( '', ( #60 ), #61 );
#21 = STYLED_ITEM( '', ( #62 ), #63 );
#22 = STYLED_ITEM( '', ( #64 ), #65 );
#23 = STYLED_ITEM( '', ( #66 ), #67 );
#24 = STYLED_ITEM( '', ( #68 ), #69 );
#25 = STYLED_ITEM( '', ( #70 ), #71 );
#26 = STYLED_ITEM( '', ( #72 ), #73 );
#27 = APPLICATION_CONTEXT( 'core data for automotive mechanical design processes' );
#28 = PRODUCT_CATEGORY( 'part', 'NONE' );
#29 = PRODUCT_RELATED_PRODUCT_CATEGORY( 'detail', ' ', ( #74 ) );
#30 = PRODUCT_DEFINITION_SHAPE( 'NONE', 'NONE', #75 );
#31 = ADVANCED_BREP_SHAPE_REPRESENTATION( '6140003_MCC22x40', ( #76, #77 ), #6 );
#34 = UNCERTAINTY_MEASURE_WITH_UNIT( LENGTH_MEASURE( 0.00100000000000000 ), #36, '', '' );
#36 =  ( CONVERSION_BASED_UNIT( 'MILLIMETRE', #80 )LENGTH_UNIT(  )NAMED_UNIT( #83 ) );
#37 =  ( NAMED_UNIT( #85 )PLANE_ANGLE_UNIT(  )SI_UNIT( $, .RADIAN. ) );
#38 =  ( NAMED_UNIT( #85 )SI_UNIT( $, .STERADIAN. )SOLID_ANGLE_UNIT(  ) );
#40 = PRESENTATION_STYLE_ASSIGNMENT( ( #91 ) );
#41 = ADVANCED_FACE( '', ( #92, #93 ), #94, .F. );
#42 = PRESENTATION_STYLE_ASSIGNMENT( ( #95 ) );
#43 = ADVANCED_FACE( '', ( #96, #97 ), #98, .F. );
#44 = PRESENTATION_STYLE_ASSIGNMENT( ( #99 ) );
#45 = ADVANCED_FACE( '', ( #100, #101 ), #102, .T. );
#46 = PRESENTATION_STYLE_ASSIGNMENT( ( #103 ) );
#47 = ADVANCED_FACE( '', ( #104, #105 ), #106, .T. );
#48 = PRESENTATION_STYLE_ASSIGNMENT( ( #107 ) );
#49 = ADVANCED_FACE( '', ( #108, #109 ), #110, .F. );
#50 = PRESENTATION_STYLE_ASSIGNMENT( ( #111 ) );
#51 = ADVANCED_FACE( '', ( #112 ), #113, .T. );
#52 = PRESENTATION_STYLE_ASSIGNMENT( ( #114 ) );
#53 = ADVANCED_FACE( '', ( #115, #116 ), #117, .F. );
#54 = PRESENTATION_STYLE_ASSIGNMENT( ( #118 ) );
#55 = ADVANCED_FACE( '', ( #119, #120 ), #121, .T. );
#56 = PRESENTATION_STYLE_ASSIGNMENT( ( #122 ) );
#57 = ADVANCED_FACE( '', ( #123, #124 ), #125, .T. );
#58 = PRESENTATION_STYLE_ASSIGNMENT( ( #126 ) );
#59 = ADVANCED_FACE( '', ( #127, #128 ), #129, .F. );
#60 = PRESENTATION_STYLE_ASSIGNMENT( ( #130 ) );
#61 = ADVANCED_FACE( '', ( #131, #132 ), #133, .T. );
#62 = PRESENTATION_STYLE_ASSIGNMENT( ( #134 ) );
#63 = ADVANCED_FACE( '', ( #135, #136 ), #137, .T. );
#64 = PRESENTATION_STYLE_ASSIGNMENT( ( #138 ) );
#65 = ADVANCED_FACE( '', ( #139 ), #140, .F. );
#66 = PRESENTATION_STYLE_ASSIGNMENT( ( #141 ) );
#67 = ADVANCED_FACE( '', ( #142, #143 ), #144, .F. );
#68 = PRESENTATION_STYLE_ASSIGNMENT( ( #145 ) );
#69 = ADVANCED_FACE( '', ( #146, #147 ), #148, .F. );
#70 = PRESENTATION_STYLE_ASSIGNMENT( ( #149 ) );
#71 = ADVANCED_FACE( '', ( #150, #151 ), #152, .T. );
#72 = PRESENTATION_STYLE_ASSIGNMENT( ( #153 ) );
#73 = ADVANCED_FACE( '', ( #154 ), #155, .F. );
#74 = PRODUCT( '6140003_MCC22x40', '6140003_MCC22x40', 'PART-6140003_MCC22x40-DESC', ( #156 ) );
#75 = PRODUCT_DEFINITION( 'NONE', 'NONE', #157, #2 );
#76 = BREP_WITH_VOIDS( '6140003_MCC22x40', #158, ( #159 ) );
#77 = AXIS2_PLACEMENT_3D( '', #160, #161, #162 );
#80 = LENGTH_MEASURE_WITH_UNIT( LENGTH_MEASURE( 1.00000000000000 ), #163 );
#83 = DIMENSIONAL_EXPONENTS( 1.00000000000000, 0.000000000000000, 0.000000000000000, 0.000000000000000, 0.000000000000000, 0.000000000000000, 0.000000000000000 );
#85 = DIMENSIONAL_EXPONENTS( 0.000000000000000, 0.000000000000000, 0.000000000000000, 0.000000000000000, 0.000000000000000, 0.000000000000000, 0.000000000000000 );
#91 = SURFACE_STYLE_USAGE( .BOTH., #164 );
#92 = FACE_OUTER_BOUND( '', #165, .T. );
#93 = FACE_BOUND( '', #166, .T. );
#94 = PLANE( '', #167 );
#95 = SURFACE_STYLE_USAGE( .BOTH., #168 );
#96 = FACE_BOUND( '', #169, .T. );
#97 = FACE_OUTER_BOUND( '', #170, .T. );
#98 = PLANE( '', #171 );
#99 = SURFACE_STYLE_USAGE( .BOTH., #172 );
#100 = FACE_OUTER_BOUND( '', #173, .T. );
#101 = FACE_BOUND( '', #174, .T. );
#102 = CONICAL_SURFACE( '', #175, 8.04645983793606, 0.103226120097149 );
#103 = SURFACE_STYLE_USAGE( .BOTH., #176 );
#104 = FACE_OUTER_BOUND( '', #177, .T. );
#105 = FACE_OUTER_BOUND( '', #178, .T. );
#106 = CYLINDRICAL_SURFACE( '', #179, 4.15000000000000 );
#107 = SURFACE_STYLE_USAGE( .BOTH., #180 );
#108 = FACE_OUTER_BOUND( '', #181, .T. );
#109 = FACE_OUTER_BOUND( '', #182, .T. );
#110 = TOROIDAL_SURFACE( '', #183, 5.40000000000000, 1.25000000000000 );
#111 = SURFACE_STYLE_USAGE( .BOTH., #184 );
#112 = FACE_OUTER_BOUND( '', #185, .T. );
#113 = SPHERICAL_SURFACE( '', #186, 11.0000000000000 );
#114 = SURFACE_STYLE_USAGE( .BOTH., #187 );
#115 = FACE_OUTER_BOUND( '', #188, .T. );
#116 = FACE_OUTER_BOUND( '', #189, .T. );
#117 = TOROIDAL_SURFACE( '', #190, 10.9999211526918, 0.587685933211269 );
#118 = SURFACE_STYLE_USAGE( .BOTH., #191 );
#119 = FACE_OUTER_BOUND( '', #192, .T. );
#120 = FACE_BOUND( '', #193, .T. );
#121 = CONICAL_SURFACE( '', #194, 3.50000000000000, 0.785398163397448 );
#122 = SURFACE_STYLE_USAGE( .BOTH., #195 );
#123 = FACE_OUTER_BOUND( '', #196, .T. );
#124 = FACE_OUTER_BOUND( '', #197, .T. );
#125 = CYLINDRICAL_SURFACE( '', #198, 5.00000000000000 );
#126 = SURFACE_STYLE_USAGE( .BOTH., #199 );
#127 = FACE_OUTER_BOUND( '', #200, .T. );
#128 = FACE_BOUND( '', #201, .T. );
#129 = CONICAL_SURFACE( '', #202, 3.32350000000000, 1.39626340159546 );
#130 = SURFACE_STYLE_USAGE( .BOTH., #203 );
#131 = FACE_OUTER_BOUND( '', #204, .T. );
#132 = FACE_OUTER_BOUND( '', #205, .T. );
#133 = CYLINDRICAL_SURFACE( '', #206, 6.00000000000000 );
#134 = SURFACE_STYLE_USAGE( .BOTH., #207 );
#135 = FACE_OUTER_BOUND( '', #208, .T. );
#136 = FACE_OUTER_BOUND( '', #209, .T. );
#137 = TOROIDAL_SURFACE( '', #210, 7.54912138127511, 0.500000000000000 );
#138 = SURFACE_STYLE_USAGE( .BOTH., #211 );
#139 = FACE_OUTER_BOUND( '', #212, .T. );
#140 = PLANE( '', #213 );
#141 = SURFACE_STYLE_USAGE( .BOTH., #214 );
#142 = FACE_OUTER_BOUND( '', #215, .T. );
#143 = FACE_OUTER_BOUND( '', #216, .T. );
#144 = TOROIDAL_SURFACE( '', #217, 5.40000000000000, 1.25000000000000 );
#145 = SURFACE_STYLE_USAGE( .BOTH., #218 );
#146 = FACE_OUTER_BOUND( '', #219, .T. );
#147 = FACE_OUTER_BOUND( '', #220, .T. );
#148 = CYLINDRICAL_SURFACE( '', #221, 3.32350000000000 );
#149 = SURFACE_STYLE_USAGE( .BOTH., #222 );
#150 = FACE_BOUND( '', #223, .T. );
#151 = FACE_OUTER_BOUND( '', #224, .T. );
#152 = CONICAL_SURFACE( '', #225, 4.00000000000000, 0.785398163397448 );
#153 = SURFACE_STYLE_USAGE( .BOTH., #226 );
#154 = FACE_OUTER_BOUND( '', #227, .T. );
#155 = PLANE( '', #228 );
#156 = PRODUCT_CONTEXT( '', #27, 'mechanical' );
#157 = PRODUCT_DEFINITION_FORMATION_WITH_SPECIFIED_SOURCE( ' ', 'NONE', #74, .NOT_KNOWN. );
#158 = CLOSED_SHELL( '', ( #41, #63, #51, #61, #53, #45, #43, #47, #49, #67, #73, #55, #57 ) );
#159 = ORIENTED_CLOSED_SHELL( '', *, #229, .T. );
#160 = CARTESIAN_POINT( '', ( 0.000000000000000, 0.000000000000000, 0.000000000000000 ) );
#161 = DIRECTION( '', ( 0.000000000000000, 0.000000000000000, 1.00000000000000 ) );
#162 = DIRECTION( '', ( 1.00000000000000, 0.000000000000000, 0.000000000000000 ) );
#163 =  ( LENGTH_UNIT(  )NAMED_UNIT( #83 )SI_UNIT( .MILLI., .METRE. ) );
#164 = SURFACE_SIDE_STYLE( '', ( #231 ) );
#165 = EDGE_LOOP( '', ( #232 ) );
#166 = EDGE_LOOP( '', ( #233 ) );
#167 = AXIS2_PLACEMENT_3D( '', #234, #235, #236 );
#168 = SURFACE_SIDE_STYLE( '', ( #237 ) );
#169 = EDGE_LOOP( '', ( #238 ) );
#170 = EDGE_LOOP( '', ( #239 ) );
#171 = AXIS2_PLACEMENT_3D( '', #240, #241, #242 );
#172 = SURFACE_SIDE_STYLE( '', ( #243 ) );
#173 = EDGE_LOOP( '', ( #244 ) );
#174 = EDGE_LOOP( '', ( #245 ) );
#175 = AXIS2_PLACEMENT_3D( '', #246, #247, #248 );
#176 = SURFACE_SIDE_STYLE( '', ( #249 ) );
#177 = EDGE_LOOP( '', ( #250 ) );
#178 = EDGE_LOOP( '', ( #251 ) );
#179 = AXIS2_PLACEMENT_3D( '', #252, #253, #254 );
#180 = SURFACE_SIDE_STYLE( '', ( #255 ) );
#181 = EDGE_LOOP( '', ( #256 ) );
#182 = EDGE_LOOP( '', ( #257 ) );
#183 = AXIS2_PLACEMENT_3D( '', #258, #259, #260 );
#184 = SURFACE_SIDE_STYLE( '', ( #261 ) );
#185 = EDGE_LOOP( '', ( #262 ) );
#186 = AXIS2_PLACEMENT_3D( '', #263, #264, #265 );
#187 = SURFACE_SIDE_STYLE( '', ( #266 ) );
#188 = EDGE_LOOP( '', ( #267 ) );
#189 = EDGE_LOOP( '', ( #268 ) );
#190 = AXIS2_PLACEMENT_3D( '', #269, #270, #271 );
#191 = SURFACE_SIDE_STYLE( '', ( #272 ) );
#192 = EDGE_LOOP( '', ( #273 ) );
#193 = EDGE_LOOP( '', ( #274 ) );
#194 = AXIS2_PLACEMENT_3D( '', #275, #276, #277 );
#195 = SURFACE_SIDE_STYLE( '', ( #278 ) );
#196 = EDGE_LOOP( '', ( #279 ) );
#197 = EDGE_LOOP( '', ( #280 ) );
#198 = AXIS2_PLACEMENT_3D( '', #281, #282, #283 );
#199 = SURFACE_SIDE_STYLE( '', ( #284 ) );
#200 = EDGE_LOOP( '', ( #285 ) );
#201 = VERTEX_LOOP( '', #286 );
#202 = AXIS2_PLACEMENT_3D( '', #287, #288, #289 );
#203 = SURFACE_SIDE_STYLE( '', ( #290 ) );
#204 = EDGE_LOOP( '', ( #291 ) );
#205 = EDGE_LOOP( '', ( #292 ) );
#206 = AXIS2_PLACEMENT_3D( '', #293, #294, #295 );
#207 = SURFACE_SIDE_STYLE( '', ( #296 ) );
#208 = EDGE_LOOP( '', ( #297 ) );
#209 = EDGE_LOOP( '', ( #298 ) );
#210 = AXIS2_PLACEMENT_3D( '', #299, #300, #301 );
#211 = SURFACE_SIDE_STYLE( '', ( #302 ) );
#212 = EDGE_LOOP( '', ( #303 ) );
#213 = AXIS2_PLACEMENT_3D( '', #304, #305, #306 );
#214 = SURFACE_SIDE_STYLE( '', ( #307 ) );
#215 = EDGE_LOOP( '', ( #308 ) );
#216 = EDGE_LOOP( '', ( #309 ) );
#217 = AXIS2_PLACEMENT_3D( '', #310, #311, #312 );
#218 = SURFACE_SIDE_STYLE( '', ( #313 ) );
#219 = EDGE_LOOP( '', ( #314 ) );
#220 = EDGE_LOOP( '', ( #315 ) );
#221 = AXIS2_PLACEMENT_3D( '', #316, #317, #318 );
#222 = SURFACE_SIDE_STYLE( '', ( #319 ) );
#223 = EDGE_LOOP( '', ( #320 ) );
#224 = EDGE_LOOP( '', ( #321 ) );
#225 = AXIS2_PLACEMENT_3D( '', #322, #323, #324 );
#226 = SURFACE_SIDE_STYLE( '', ( #325 ) );
#227 = EDGE_LOOP( '', ( #326 ) );
#228 = AXIS2_PLACEMENT_3D( '', #327, #328, #329 );
#229 = CLOSED_SHELL( '', ( #59, #69, #65, #71 ) );
#231 = SURFACE_STYLE_FILL_AREA( #330 );
#232 = ORIENTED_EDGE( '', *, *, #331, .F. );
#233 = ORIENTED_EDGE( '', *, *, #332, .F. );
#234 = CARTESIAN_POINT( '', ( 4.62235100464293E-016, 7.54912138127511, 1.25776544028220E-014 ) );
#235 = DIRECTION( '', ( 0.000000000000000, 0.000000000000000, 1.00000000000000 ) );
#236 = DIRECTION( '', ( 1.00000000000000, 0.000000000000000, 0.000000000000000 ) );
#237 = SURFACE_STYLE_FILL_AREA( #333 );
#238 = ORIENTED_EDGE( '', *, *, #334, .T. );
#239 = ORIENTED_EDGE( '', *, *, #335, .T. );
#240 = CARTESIAN_POINT( '', ( -3.59739828611836E-015, -6.00000000000000, -45.0000000000000 ) );
#241 = DIRECTION( '', ( 7.25406973051293E-017, 3.00137144739660E-017, 1.00000000000000 ) );
#242 = DIRECTION( '', ( 5.55111512312578E-017, 1.00000000000000, -3.00137144739660E-017 ) );
#243 = SURFACE_STYLE_FILL_AREA( #336 );
#244 = ORIENTED_EDGE( '', *, *, #337, .F. );
#245 = ORIENTED_EDGE( '', *, *, #338, .T. );
#246 = CARTESIAN_POINT( '', ( 0.000000000000000, 0.000000000000000, 0.448478552756121 ) );
#247 = DIRECTION( '', ( -0.000000000000000, -0.000000000000000, 1.00000000000000 ) );
#248 = DIRECTION( '', ( 1.00000000000000, 0.000000000000000, 0.000000000000000 ) );
#249 = SURFACE_STYLE_FILL_AREA( #339 );
#250 = ORIENTED_EDGE( '', *, *, #340, .T. );
#251 = ORIENTED_EDGE( '', *, *, #341, .T. );
#252 = CARTESIAN_POINT( '', ( -4.14570085098814E-015, -1.71528378218716E-015, -57.1500000000000 ) );
#253 = DIRECTION( '', ( 7.25406973051293E-017, 3.00137144739660E-017, 1.00000000000000 ) );
#254 = DIRECTION( '', ( -5.55111512312578E-017, -1.00000000000000, 3.00137144739660E-017 ) );
#255 = SURFACE_STYLE_FILL_AREA( #342 );
#256 = ORIENTED_EDGE( '', *, *, #334, .F. );
#257 = ORIENTED_EDGE( '', *, *, #341, .F. );
#258 = CARTESIAN_POINT( '', ( -3.35500725036223E-015, -1.38813429442093E-015, -46.2500000000000 ) );
#259 = DIRECTION( '', ( 7.25406973051293E-017, 3.00137144739660E-017, 1.00000000000000 ) );
#260 = DIRECTION( '', ( 5.55111512312578E-017, 1.00000000000000, -3.00137144739660E-017 ) );
#261 = SURFACE_STYLE_FILL_AREA( #343 );
#262 = ORIENTED_EDGE( '', *, *, #344, .T. );
#263 = CARTESIAN_POINT( '', ( 1.06217669540302E-031, 1.73472347597680E-015, 29.0000000000000 ) );
#264 = DIRECTION( '', ( 0.000000000000000, 0.000000000000000, 1.00000000000000 ) );
#265 = DIRECTION( '', ( 6.12303176911189E-017, 1.00000000000000, 0.000000000000000 ) );
#266 = SURFACE_STYLE_FILL_AREA( #345 );
#267 = ORIENTED_EDGE( '', *, *, #344, .F. );
#268 = ORIENTED_EDGE( '', *, *, #337, .T. );
#269 = CARTESIAN_POINT( '', ( 0.000000000000000, 0.000000000000000, 28.9583510556634 ) );
#270 = DIRECTION( '', ( 0.000000000000000, 0.000000000000000, 1.00000000000000 ) );
#271 = DIRECTION( '', ( 1.00000000000000, 0.000000000000000, 0.000000000000000 ) );
#272 = SURFACE_STYLE_FILL_AREA( #346 );
#273 = ORIENTED_EDGE( '', *, *, #347, .F. );
#274 = ORIENTED_EDGE( '', *, *, #348, .F. );
#275 = CARTESIAN_POINT( '', ( -4.27990114100263E-015, -1.77080915396399E-015, -59.0000000000000 ) );
#276 = DIRECTION( '', ( 7.25406973051293E-017, 3.00137144739660E-017, 1.00000000000000 ) );
#277 = DIRECTION( '', ( 5.55111512312578E-017, 1.00000000000000, -3.00137144739660E-017 ) );
#278 = SURFACE_STYLE_FILL_AREA( #349 );
#279 = ORIENTED_EDGE( '', *, *, #347, .T. );
#280 = ORIENTED_EDGE( '', *, *, #350, .T. );
#281 = CARTESIAN_POINT( '', ( -4.14570085098814E-015, -1.71528378218716E-015, -57.1500000000000 ) );
#282 = DIRECTION( '', ( 7.25406973051293E-017, 3.00137144739660E-017, 1.00000000000000 ) );
#283 = DIRECTION( '', ( -5.55111512312578E-017, -1.00000000000000, 3.00137144739660E-017 ) );
#284 = SURFACE_STYLE_FILL_AREA( #351 );
#285 = ORIENTED_EDGE( '', *, *, #352, .F. );
#286 = VERTEX_POINT( '', #353 );
#287 = CARTESIAN_POINT( '', ( 0.000000000000000, 0.000000000000000, 25.0000000000000 ) );
#288 = DIRECTION( '', ( 0.000000000000000, -0.000000000000000, -1.00000000000000 ) );
#289 = DIRECTION( '', ( 0.000000000000000, -1.00000000000000, 0.000000000000000 ) );
#290 = SURFACE_STYLE_FILL_AREA( #354 );
#291 = ORIENTED_EDGE( '', *, *, #335, .F. );
#292 = ORIENTED_EDGE( '', *, *, #332, .T. );
#293 = CARTESIAN_POINT( '', ( -4.14570085098814E-015, -1.71528378218716E-015, -57.1500000000000 ) );
#294 = DIRECTION( '', ( 7.25406973051293E-017, 3.00137144739660E-017, 1.00000000000000 ) );
#295 = DIRECTION( '', ( -5.55111512312578E-017, -1.00000000000000, 3.00137144739660E-017 ) );
#296 = SURFACE_STYLE_FILL_AREA( #355 );
#297 = ORIENTED_EDGE( '', *, *, #338, .F. );
#298 = ORIENTED_EDGE( '', *, *, #331, .T. );
#299 = CARTESIAN_POINT( '', ( 0.000000000000000, 0.000000000000000, 0.500000000000007 ) );
#300 = DIRECTION( '', ( 0.000000000000000, 0.000000000000000, 1.00000000000000 ) );
#301 = DIRECTION( '', ( 1.00000000000000, 0.000000000000000, 0.000000000000000 ) );
#302 = SURFACE_STYLE_FILL_AREA( #356 );
#303 = ORIENTED_EDGE( '', *, *, #357, .T. );
#304 = CARTESIAN_POINT( '', ( 1.23319185418720E-015, 5.10233146057422E-016, 17.0000000000000 ) );
#305 = DIRECTION( '', ( -7.25406973051293E-017, -3.00137144739660E-017, -1.00000000000000 ) );
#306 = DIRECTION( '', ( -5.55111512312578E-017, -1.00000000000000, 3.00137144739660E-017 ) );
#307 = SURFACE_STYLE_FILL_AREA( #358 );
#308 = ORIENTED_EDGE( '', *, *, #340, .F. );
#309 = ORIENTED_EDGE( '', *, *, #350, .F. );
#310 = CARTESIAN_POINT( '', ( -3.35977521052075E-015, -1.39010703799987E-015, -46.3157280717673 ) );
#311 = DIRECTION( '', ( -7.25406973051293E-017, -3.00137144739660E-017, -1.00000000000000 ) );
#312 = DIRECTION( '', ( -5.55111512312578E-017, -1.00000000000000, 3.00137144739660E-017 ) );
#313 = SURFACE_STYLE_FILL_AREA( #359 );
#314 = ORIENTED_EDGE( '', *, *, #360, .T. );
#315 = ORIENTED_EDGE( '', *, *, #352, .T. );
#316 = CARTESIAN_POINT( '', ( 0.000000000000000, 0.000000000000000, 1.25776544028220E-014 ) );
#317 = DIRECTION( '', ( -0.000000000000000, 0.000000000000000, -1.00000000000000 ) );
#318 = DIRECTION( '', ( 0.000000000000000, 1.00000000000000, 0.000000000000000 ) );
#319 = SURFACE_STYLE_FILL_AREA( #361 );
#320 = ORIENTED_EDGE( '', *, *, #357, .F. );
#321 = ORIENTED_EDGE( '', *, *, #360, .F. );
#322 = CARTESIAN_POINT( '', ( 1.16065115688207E-015, 4.80219431583455E-016, 16.0000000000000 ) );
#323 = DIRECTION( '', ( -7.25406973051293E-017, -3.00137144739660E-017, -1.00000000000000 ) );
#324 = DIRECTION( '', ( -5.55111512312578E-017, -1.00000000000000, 3.00137144739660E-017 ) );
#325 = SURFACE_STYLE_FILL_AREA( #362 );
#326 = ORIENTED_EDGE( '', *, *, #348, .T. );
#327 = CARTESIAN_POINT( '', ( -4.55745689715892E-015, -5.00000000000000, -59.0000000000000 ) );
#328 = DIRECTION( '', ( 7.25406973051293E-017, 3.00137144739660E-017, 1.00000000000000 ) );
#329 = DIRECTION( '', ( 5.55111512312578E-017, 1.00000000000000, -3.00137144739660E-017 ) );
#330 = FILL_AREA_STYLE( '', ( #363 ) );
#331 = EDGE_CURVE( '', #364, #364, #365, .T. );
#332 = EDGE_CURVE( '', #366, #366, #367, .F. );
#333 = FILL_AREA_STYLE( '', ( #368 ) );
#334 = EDGE_CURVE( '', #369, #369, #370, .T. );
#335 = EDGE_CURVE( '', #371, #371, #372, .T. );
#336 = FILL_AREA_STYLE( '', ( #373 ) );
#337 = EDGE_CURVE( '', #374, #374, #375, .T. );
#338 = EDGE_CURVE( '', #376, #376, #377, .T. );
#339 = FILL_AREA_STYLE( '', ( #378 ) );
#340 = EDGE_CURVE( '', #379, #379, #380, .F. );
#341 = EDGE_CURVE( '', #381, #381, #382, .F. );
#342 = FILL_AREA_STYLE( '', ( #383 ) );
#343 = FILL_AREA_STYLE( '', ( #384 ) );
#344 = EDGE_CURVE( '', #385, #385, #386, .T. );
#345 = FILL_AREA_STYLE( '', ( #387 ) );
#346 = FILL_AREA_STYLE( '', ( #388 ) );
#347 = EDGE_CURVE( '', #389, #389, #390, .T. );
#348 = EDGE_CURVE( '', #391, #391, #392, .F. );
#349 = FILL_AREA_STYLE( '', ( #393 ) );
#350 = EDGE_CURVE( '', #394, #394, #395, .T. );
#351 = FILL_AREA_STYLE( '', ( #396 ) );
#352 = EDGE_CURVE( '', #397, #397, #398, .T. );
#353 = CARTESIAN_POINT( '', ( 0.000000000000000, 0.000000000000000, 25.5860227203846 ) );
#354 = FILL_AREA_STYLE( '', ( #399 ) );
#355 = FILL_AREA_STYLE( '', ( #400 ) );
#356 = FILL_AREA_STYLE( '', ( #401 ) );
#357 = EDGE_CURVE( '', #402, #402, #403, .F. );
#358 = FILL_AREA_STYLE( '', ( #404 ) );
#359 = FILL_AREA_STYLE( '', ( #405 ) );
#360 = EDGE_CURVE( '', #406, #406, #407, .T. );
#361 = FILL_AREA_STYLE( '', ( #408 ) );
#362 = FILL_AREA_STYLE( '', ( #409 ) );
#363 = FILL_AREA_STYLE_COLOUR( '', #410 );
#364 = VERTEX_POINT( '', #411 );
#365 = CIRCLE( '', #412, 7.54912138127511 );
#366 = VERTEX_POINT( '', #413 );
#367 = CIRCLE( '', #414, 6.00000000000000 );
#368 = FILL_AREA_STYLE_COLOUR( '', #415 );
#369 = VERTEX_POINT( '', #416 );
#370 = CIRCLE( '', #417, 5.40000000000000 );
#371 = VERTEX_POINT( '', #418 );
#372 = CIRCLE( '', #419, 6.00000000000000 );
#373 = FILL_AREA_STYLE_COLOUR( '', #420 );
#374 = VERTEX_POINT( '', #421 );
#375 = CIRCLE( '', #422, 10.9393642930839 );
#376 = VERTEX_POINT( '', #423 );
#377 = CIRCLE( '', #424, 8.04645983793606 );
#378 = FILL_AREA_STYLE_COLOUR( '', #425 );
#379 = VERTEX_POINT( '', #426 );
#380 = CIRCLE( '', #427, 4.15000000000000 );
#381 = VERTEX_POINT( '', #428 );
#382 = CIRCLE( '', #429, 4.15000000000000 );
#383 = FILL_AREA_STYLE_COLOUR( '', #430 );
#384 = FILL_AREA_STYLE_COLOUR( '', #431 );
#385 = VERTEX_POINT( '', #432 );
#386 = CIRCLE( '', #433, 10.9864467548649 );
#387 = FILL_AREA_STYLE_COLOUR( '', #434 );
#388 = FILL_AREA_STYLE_COLOUR( '', #435 );
#389 = VERTEX_POINT( '', #436 );
#390 = CIRCLE( '', #437, 5.00000000000000 );
#391 = VERTEX_POINT( '', #438 );
#392 = CIRCLE( '', #439, 3.50000000000000 );
#393 = FILL_AREA_STYLE_COLOUR( '', #440 );
#394 = VERTEX_POINT( '', #441 );
#395 = CIRCLE( '', #442, 5.00000000000000 );
#396 = FILL_AREA_STYLE_COLOUR( '', #443 );
#397 = VERTEX_POINT( '', #444 );
#398 = CIRCLE( '', #445, 3.32350000000000 );
#399 = FILL_AREA_STYLE_COLOUR( '', #446 );
#400 = FILL_AREA_STYLE_COLOUR( '', #447 );
#401 = FILL_AREA_STYLE_COLOUR( '', #448 );
#402 = VERTEX_POINT( '', #449 );
#403 = CIRCLE( '', #450, 3.00000000000000 );
#404 = FILL_AREA_STYLE_COLOUR( '', #451 );
#405 = FILL_AREA_STYLE_COLOUR( '', #452 );
#406 = VERTEX_POINT( '', #453 );
#407 = CIRCLE( '', #454, 3.32350000000000 );
#408 = FILL_AREA_STYLE_COLOUR( '', #455 );
#409 = FILL_AREA_STYLE_COLOUR( '', #456 );
#410 = COLOUR_RGB( '', 0.200000002980232, 0.200000002980232, 0.200000002980232 );
#411 = CARTESIAN_POINT( '', ( 7.54912138127511, 0.000000000000000, 6.93889390390723E-015 ) );
#412 = AXIS2_PLACEMENT_3D( '', #457, #458, #459 );
#413 = CARTESIAN_POINT( '', ( 6.00000000000000, 3.85185988877447E-031, 1.38777878078145E-014 ) );
#414 = AXIS2_PLACEMENT_3D( '', #460, #461, #462 );
#415 = COLOUR_RGB( '', 0.666666686534882, 0.733333349227905, 0.866666674613953 );
#416 = CARTESIAN_POINT( '', ( -2.96457116208203E-015, 5.40000000000000, -45.0000000000000 ) );
#417 = AXIS2_PLACEMENT_3D( '', #463, #464, #465 );
#418 = CARTESIAN_POINT( '', ( -3.59739828611837E-015, -6.00000000000000, -45.0000000000000 ) );
#419 = AXIS2_PLACEMENT_3D( '', #466, #467, #468 );
#420 = COLOUR_RGB( '', 0.200000002980232, 0.200000002980232, 0.200000002980232 );
#421 = CARTESIAN_POINT( '', ( 10.9393642930839, 0.000000000000000, 28.3737934256141 ) );
#422 = AXIS2_PLACEMENT_3D( '', #469, #470, #471 );
#423 = CARTESIAN_POINT( '', ( 8.04645983793606, 0.000000000000000, 0.448478552756121 ) );
#424 = AXIS2_PLACEMENT_3D( '', #472, #473, #474 );
#425 = COLOUR_RGB( '', 0.666666686534882, 0.733333349227905, 0.866666674613953 );
#426 = CARTESIAN_POINT( '', ( -3.59014648813047E-015, -4.15000000000000, -46.3157280717673 ) );
#427 = AXIS2_PLACEMENT_3D( '', #475, #476, #477 );
#428 = CARTESIAN_POINT( '', ( -3.12463597275251E-015, 4.15000000000000, -46.2500000000000 ) );
#429 = AXIS2_PLACEMENT_3D( '', #478, #479, #480 );
#430 = COLOUR_RGB( '', 0.666666686534882, 0.733333349227905, 0.866666674613953 );
#431 = COLOUR_RGB( '', 0.200000002980232, 0.200000002980232, 0.200000002980232 );
#432 = CARTESIAN_POINT( '', ( 10.9864467548649, 0.000000000000000, 29.5458824988200 ) );
#433 = AXIS2_PLACEMENT_3D( '', #481, #482, #483 );
#434 = COLOUR_RGB( '', 0.200000002980232, 0.200000002980232, 0.200000002980232 );
#435 = COLOUR_RGB( '', 0.666666686534882, 0.733333349227905, 0.866666674613953 );
#436 = CARTESIAN_POINT( '', ( -3.89353433888865E-015, 5.00000000000000, -57.5000000000000 ) );
#437 = AXIS2_PLACEMENT_3D( '', #484, #485, #486 );
#438 = CARTESIAN_POINT( '', ( -4.08561211169323E-015, 3.50000000000000, -59.0000000000000 ) );
#439 = AXIS2_PLACEMENT_3D( '', #487, #488, #489 );
#440 = COLOUR_RGB( '', 0.752941191196442, 0.752941191196442, 0.752941191196442 );
#441 = CARTESIAN_POINT( '', ( -3.72323887814993E-015, -5.00000000000000, -47.5000000000000 ) );
#442 = AXIS2_PLACEMENT_3D( '', #490, #491, #492 );
#443 = COLOUR_RGB( '', 0.200000002980232, 0.200000002980232, 0.200000002980232 );
#444 = CARTESIAN_POINT( '', ( 0.000000000000000, -3.32350000000000, 25.0000000000000 ) );
#445 = AXIS2_PLACEMENT_3D( '', #493, #494, #495 );
#446 = COLOUR_RGB( '', 0.666666686534882, 0.733333349227905, 0.866666674613953 );
#447 = COLOUR_RGB( '', 0.200000002980232, 0.200000002980232, 0.200000002980232 );
#448 = COLOUR_RGB( '', 0.666666686534882, 0.733333349227905, 0.866666674613953 );
#449 = CARTESIAN_POINT( '', ( 1.06665840049343E-015, -3.00000000000000, 17.0000000000000 ) );
#450 = AXIS2_PLACEMENT_3D( '', #496, #497, #498 );
#451 = COLOUR_RGB( '', 0.666666686534882, 0.733333349227905, 0.866666674613953 );
#452 = COLOUR_RGB( '', 0.752941191196442, 0.752941191196442, 0.752941191196442 );
#453 = CARTESIAN_POINT( '', ( -3.32350000000000, 5.00523709425093E-016, 16.6765000000000 ) );
#454 = AXIS2_PLACEMENT_3D( '', #499, #500, #501 );
#455 = COLOUR_RGB( '', 0.666666686534882, 0.733333349227905, 0.866666674613953 );
#456 = COLOUR_RGB( '', 0.666666686534882, 0.733333349227905, 0.866666674613953 );
#457 = CARTESIAN_POINT( '', ( 0.000000000000000, 0.000000000000000, 6.93889390390723E-015 ) );
#458 = DIRECTION( '', ( 0.000000000000000, 0.000000000000000, 1.00000000000000 ) );
#459 = DIRECTION( '', ( 1.00000000000000, 0.000000000000000, 0.000000000000000 ) );
#460 = CARTESIAN_POINT( '', ( 7.70371977754894E-031, 3.85185988877447E-031, 1.38777878078145E-014 ) );
#461 = DIRECTION( '', ( 0.000000000000000, 0.000000000000000, 1.00000000000000 ) );
#462 = DIRECTION( '', ( 1.00000000000000, 0.000000000000000, 0.000000000000000 ) );
#463 = CARTESIAN_POINT( '', ( -3.26433137873082E-015, -1.35061715132847E-015, -45.0000000000000 ) );
#464 = DIRECTION( '', ( 7.25406973051293E-017, 3.00137144739660E-017, 1.00000000000000 ) );
#465 = DIRECTION( '', ( 5.55111512312578E-017, 1.00000000000000, -3.00137144739660E-017 ) );
#466 = CARTESIAN_POINT( '', ( -3.26433137873082E-015, -1.35061715132847E-015, -45.0000000000000 ) );
#467 = DIRECTION( '', ( -7.25406973051293E-017, -3.00137144739660E-017, -1.00000000000000 ) );
#468 = DIRECTION( '', ( -5.55111512312578E-017, -1.00000000000000, 3.00137144739660E-017 ) );
#469 = CARTESIAN_POINT( '', ( 0.000000000000000, 0.000000000000000, 28.3737934256141 ) );
#470 = DIRECTION( '', ( 0.000000000000000, 0.000000000000000, 1.00000000000000 ) );
#471 = DIRECTION( '', ( 1.00000000000000, 0.000000000000000, 0.000000000000000 ) );
#472 = CARTESIAN_POINT( '', ( 0.000000000000000, 0.000000000000000, 0.448478552756121 ) );
#473 = DIRECTION( '', ( 0.000000000000000, 0.000000000000000, 1.00000000000000 ) );
#474 = DIRECTION( '', ( 1.00000000000000, 0.000000000000000, 0.000000000000000 ) );
#475 = CARTESIAN_POINT( '', ( -3.35977521052075E-015, -1.39010703799987E-015, -46.3157280717673 ) );
#476 = DIRECTION( '', ( -7.25406973051293E-017, -3.00137144739660E-017, -1.00000000000000 ) );
#477 = DIRECTION( '', ( -5.55111512312578E-017, -1.00000000000000, 3.00137144739660E-017 ) );
#478 = CARTESIAN_POINT( '', ( -3.35500725036223E-015, -1.38813429442093E-015, -46.2500000000000 ) );
#479 = DIRECTION( '', ( 7.25406973051293E-017, 3.00137144739660E-017, 1.00000000000000 ) );
#480 = DIRECTION( '', ( 5.55111512312578E-017, 1.00000000000000, -3.00137144739660E-017 ) );
#481 = CARTESIAN_POINT( '', ( 0.000000000000000, 0.000000000000000, 29.5458824988200 ) );
#482 = DIRECTION( '', ( 0.000000000000000, 0.000000000000000, 1.00000000000000 ) );
#483 = DIRECTION( '', ( 1.00000000000000, 0.000000000000000, 0.000000000000000 ) );
#484 = CARTESIAN_POINT( '', ( -4.17109009504493E-015, -1.72578858225305E-015, -57.5000000000000 ) );
#485 = DIRECTION( '', ( 7.25406973051293E-017, 3.00137144739660E-017, 1.00000000000000 ) );
#486 = DIRECTION( '', ( 5.55111512312578E-017, 1.00000000000000, -3.00137144739660E-017 ) );
#487 = CARTESIAN_POINT( '', ( -4.27990114100263E-015, -1.77080915396399E-015, -59.0000000000000 ) );
#488 = DIRECTION( '', ( 7.25406973051293E-017, 3.00137144739660E-017, 1.00000000000000 ) );
#489 = DIRECTION( '', ( 5.55111512312578E-017, 1.00000000000000, -3.00137144739660E-017 ) );
#490 = CARTESIAN_POINT( '', ( -3.44568312199364E-015, -1.42565143751338E-015, -47.5000000000000 ) );
#491 = DIRECTION( '', ( -7.25406973051293E-017, -3.00137144739660E-017, -1.00000000000000 ) );
#492 = DIRECTION( '', ( -5.55111512312578E-017, -1.00000000000000, 3.00137144739660E-017 ) );
#493 = CARTESIAN_POINT( '', ( 0.000000000000000, 0.000000000000000, 25.0000000000000 ) );
#494 = DIRECTION( '', ( 0.000000000000000, 0.000000000000000, 1.00000000000000 ) );
#495 = DIRECTION( '', ( 0.000000000000000, -1.00000000000000, 0.000000000000000 ) );
#496 = CARTESIAN_POINT( '', ( 1.23319185418720E-015, 5.10233146057422E-016, 17.0000000000000 ) );
#497 = DIRECTION( '', ( -7.25406973051293E-017, -3.00137144739660E-017, -1.00000000000000 ) );
#498 = DIRECTION( '', ( -5.55111512312578E-017, -1.00000000000000, 3.00137144739660E-017 ) );
#499 = CARTESIAN_POINT( '', ( 1.20972493860899E-015, 5.00523709425093E-016, 16.6765000000000 ) );
#500 = DIRECTION( '', ( -7.25406973051293E-017, -3.00137144739659E-017, -1.00000000000000 ) );
#501 = DIRECTION( '', ( -1.00000000000000, 0.000000000000000, 7.25406973051293E-017 ) );
ENDSEC;
END-ISO-10303-21;
