ISO-10303-21;
HEADER;
FILE_DESCRIPTION( ( 'Unknown' ), '1' );
FILE_NAME( '//SBS2003/HD_Usb/Disegni/10_GAMM_CD/2- Gamm_STEP/03 - MANOPOLE/03_16.2-BI/6135200_BI22_M10x75.stp', 'Unknown', ( 'Unknown' ), ( 'Unknown' ), 'PSStep 11.0', 'Unknown', '  ' );
FILE_SCHEMA( ( 'AUTOMOTIVE_DESIGN { 1 0 10303 214 1 1 1 1 }' ) );
ENDSEC;
DATA;
#1 = MECHANICAL_DESIGN_GEOMETRIC_PRESENTATION_REPRESENTATION( ' ', ( #10, #11, #12, #13, #14, #15, #16, #17, #18, #19, #20, #21, #22, #23, #24, #25, #26 ), #6 );
#2 = PRODUCT_DEFINITION_CONTEXT( '', #27, 'design' );
#3 = APPLICATION_PROTOCOL_DEFINITION( 'INTERNATIONAL STANDARD', 'automotive_design', 2001, #27 );
#4 = PRODUCT_CATEGORY_RELATIONSHIP( 'NONE', 'NONE', #28, #29 );
#5 = SHAPE_DEFINITION_REPRESENTATION( #30, #31 );
#6 =  ( GEOMETRIC_REPRESENTATION_CONTEXT( 3 )GLOBAL_UNCERTAINTY_ASSIGNED_CONTEXT( ( #34 ) )GLOBAL_UNIT_ASSIGNED_CONTEXT( ( #36, #37, #38 ) )REPRESENTATION_CONTEXT( 'NONE', 'WORKSPACE' ) );
#10 = STYLED_ITEM( '', ( #40 ), #41 );
#11 = STYLED_ITEM( '', ( #42 ), #43 );
#12 = STYLED_ITEM( '', ( #44 ), #45 );
#13 = STYLED_ITEM( '', ( #46 ), #47 );
#14 = STYLED_ITEM( '', ( #48 ), #49 );
#15 = STYLED_ITEM( '', ( #50 ), #51 );
#16 = STYLED_ITEM( '', ( #52 ), #53 );
#17 = STYLED_ITEM( '', ( #54 ), #55 );
#18 = STYLED_ITEM( '', ( #56 ), #57 );
#19 = STYLED_ITEM( '', ( #58 ), #59 );
#20 = STYLED_ITEM( '', ( #60 ), #61 );
#21 = STYLED_ITEM( '', ( #62 ), #63 );
#22 = STYLED_ITEM( '', ( #64 ), #65 );
#23 = STYLED_ITEM( '', ( #66 ), #67 );
#24 = STYLED_ITEM( '', ( #68 ), #69 );
#25 = STYLED_ITEM( '', ( #70 ), #71 );
#26 = STYLED_ITEM( '', ( #72 ), #73 );
#27 = APPLICATION_CONTEXT( 'core data for automotive mechanical design processes' );
#28 = PRODUCT_CATEGORY( 'part', 'NONE' );
#29 = PRODUCT_RELATED_PRODUCT_CATEGORY( 'detail', ' ', ( #74 ) );
#30 = PRODUCT_DEFINITION_SHAPE( 'NONE', 'NONE', #75 );
#31 = ADVANCED_BREP_SHAPE_REPRESENTATION( '6140003_MCC22x40', ( #76, #77 ), #6 );
#34 = UNCERTAINTY_MEASURE_WITH_UNIT( LENGTH_MEASURE( 0.00100000000000000 ), #36, '', '' );
#36 =  ( CONVERSION_BASED_UNIT( 'MILLIMETRE', #80 )LENGTH_UNIT(  )NAMED_UNIT( #83 ) );
#37 =  ( NAMED_UNIT( #85 )PLANE_ANGLE_UNIT(  )SI_UNIT( $, .RADIAN. ) );
#38 =  ( NAMED_UNIT( #85 )SI_UNIT( $, .STERADIAN. )SOLID_ANGLE_UNIT(  ) );
#40 = PRESENTATION_STYLE_ASSIGNMENT( ( #91 ) );
#41 = ADVANCED_FACE( '', ( #92, #93 ), #94, .T. );
#42 = PRESENTATION_STYLE_ASSIGNMENT( ( #95 ) );
#43 = ADVANCED_FACE( '', ( #96, #97 ), #98, .T. );
#44 = PRESENTATION_STYLE_ASSIGNMENT( ( #99 ) );
#45 = ADVANCED_FACE( '', ( #100 ), #101, .F. );
#46 = PRESENTATION_STYLE_ASSIGNMENT( ( #102 ) );
#47 = ADVANCED_FACE( '', ( #103, #104 ), #105, .F. );
#48 = PRESENTATION_STYLE_ASSIGNMENT( ( #106 ) );
#49 = ADVANCED_FACE( '', ( #107, #108 ), #109, .T. );
#50 = PRESENTATION_STYLE_ASSIGNMENT( ( #110 ) );
#51 = ADVANCED_FACE( '', ( #111, #112 ), #113, .F. );
#52 = PRESENTATION_STYLE_ASSIGNMENT( ( #114 ) );
#53 = ADVANCED_FACE( '', ( #115, #116 ), #117, .T. );
#54 = PRESENTATION_STYLE_ASSIGNMENT( ( #118 ) );
#55 = ADVANCED_FACE( '', ( #119, #120 ), #121, .F. );
#56 = PRESENTATION_STYLE_ASSIGNMENT( ( #122 ) );
#57 = ADVANCED_FACE( '', ( #123, #124 ), #125, .T. );
#58 = PRESENTATION_STYLE_ASSIGNMENT( ( #126 ) );
#59 = ADVANCED_FACE( '', ( #127 ), #128, .F. );
#60 = PRESENTATION_STYLE_ASSIGNMENT( ( #129 ) );
#61 = ADVANCED_FACE( '', ( #130, #131 ), #132, .F. );
#62 = PRESENTATION_STYLE_ASSIGNMENT( ( #133 ) );
#63 = ADVANCED_FACE( '', ( #134, #135 ), #136, .F. );
#64 = PRESENTATION_STYLE_ASSIGNMENT( ( #137 ) );
#65 = ADVANCED_FACE( '', ( #138, #139 ), #140, .T. );
#66 = PRESENTATION_STYLE_ASSIGNMENT( ( #141 ) );
#67 = ADVANCED_FACE( '', ( #142, #143 ), #144, .F. );
#68 = PRESENTATION_STYLE_ASSIGNMENT( ( #145 ) );
#69 = ADVANCED_FACE( '', ( #146, #147 ), #148, .F. );
#70 = PRESENTATION_STYLE_ASSIGNMENT( ( #149 ) );
#71 = ADVANCED_FACE( '', ( #150, #151 ), #152, .T. );
#72 = PRESENTATION_STYLE_ASSIGNMENT( ( #153 ) );
#73 = ADVANCED_FACE( '', ( #154 ), #155, .T. );
#74 = PRODUCT( '6140003_MCC22x40', '6140003_MCC22x40', 'PART-6140003_MCC22x40-DESC', ( #156 ) );
#75 = PRODUCT_DEFINITION( 'NONE', 'NONE', #157, #2 );
#76 = BREP_WITH_VOIDS( '6140003_MCC22x40', #158, ( #159 ) );
#77 = AXIS2_PLACEMENT_3D( '', #160, #161, #162 );
#80 = LENGTH_MEASURE_WITH_UNIT( LENGTH_MEASURE( 1.00000000000000 ), #163 );
#83 = DIMENSIONAL_EXPONENTS( 1.00000000000000, 0.000000000000000, 0.000000000000000, 0.000000000000000, 0.000000000000000, 0.000000000000000, 0.000000000000000 );
#85 = DIMENSIONAL_EXPONENTS( 0.000000000000000, 0.000000000000000, 0.000000000000000, 0.000000000000000, 0.000000000000000, 0.000000000000000, 0.000000000000000 );
#91 = SURFACE_STYLE_USAGE( .BOTH., #164 );
#92 = FACE_OUTER_BOUND( '', #165, .T. );
#93 = FACE_OUTER_BOUND( '', #166, .T. );
#94 = TOROIDAL_SURFACE( '', #167, 7.54912138127511, 0.500000000000000 );
#95 = SURFACE_STYLE_USAGE( .BOTH., #168 );
#96 = FACE_BOUND( '', #169, .T. );
#97 = FACE_OUTER_BOUND( '', #170, .T. );
#98 = CONICAL_SURFACE( '', #171, 4.00000000000000, 0.785398163397448 );
#99 = SURFACE_STYLE_USAGE( .BOTH., #172 );
#100 = FACE_OUTER_BOUND( '', #173, .T. );
#101 = PLANE( '', #174 );
#102 = SURFACE_STYLE_USAGE( .BOTH., #175 );
#103 = FACE_OUTER_BOUND( '', #176, .T. );
#104 = FACE_BOUND( '', #177, .T. );
#105 = PLANE( '', #178 );
#106 = SURFACE_STYLE_USAGE( .BOTH., #179 );
#107 = FACE_OUTER_BOUND( '', #180, .T. );
#108 = FACE_OUTER_BOUND( '', #181, .T. );
#109 = CYLINDRICAL_SURFACE( '', #182, 5.00000000000000 );
#110 = SURFACE_STYLE_USAGE( .BOTH., #183 );
#111 = FACE_OUTER_BOUND( '', #184, .T. );
#112 = FACE_OUTER_BOUND( '', #185, .T. );
#113 = CYLINDRICAL_SURFACE( '', #186, 3.32350000000000 );
#114 = SURFACE_STYLE_USAGE( .BOTH., #187 );
#115 = FACE_OUTER_BOUND( '', #188, .T. );
#116 = FACE_OUTER_BOUND( '', #189, .T. );
#117 = CYLINDRICAL_SURFACE( '', #190, 6.00000000000000 );
#118 = SURFACE_STYLE_USAGE( .BOTH., #191 );
#119 = FACE_OUTER_BOUND( '', #192, .T. );
#120 = FACE_OUTER_BOUND( '', #193, .T. );
#121 = TOROIDAL_SURFACE( '', #194, 10.9999211526918, 0.587685933211269 );
#122 = SURFACE_STYLE_USAGE( .BOTH., #195 );
#123 = FACE_OUTER_BOUND( '', #196, .T. );
#124 = FACE_BOUND( '', #197, .T. );
#125 = CONICAL_SURFACE( '', #198, 8.04645983793606, 0.103226120097149 );
#126 = SURFACE_STYLE_USAGE( .BOTH., #199 );
#127 = FACE_OUTER_BOUND( '', #200, .T. );
#128 = PLANE( '', #201 );
#129 = SURFACE_STYLE_USAGE( .BOTH., #202 );
#130 = FACE_BOUND( '', #203, .T. );
#131 = FACE_OUTER_BOUND( '', #204, .T. );
#132 = PLANE( '', #205 );
#133 = SURFACE_STYLE_USAGE( .BOTH., #206 );
#134 = FACE_OUTER_BOUND( '', #207, .T. );
#135 = FACE_OUTER_BOUND( '', #208, .T. );
#136 = TOROIDAL_SURFACE( '', #209, 5.40000000000000, 1.25000000000000 );
#137 = SURFACE_STYLE_USAGE( .BOTH., #210 );
#138 = FACE_OUTER_BOUND( '', #211, .T. );
#139 = FACE_OUTER_BOUND( '', #212, .T. );
#140 = CYLINDRICAL_SURFACE( '', #213, 4.15000000000000 );
#141 = SURFACE_STYLE_USAGE( .BOTH., #214 );
#142 = FACE_OUTER_BOUND( '', #215, .T. );
#143 = FACE_BOUND( '', #216, .T. );
#144 = CONICAL_SURFACE( '', #217, 3.32350000000000, 1.39626340159546 );
#145 = SURFACE_STYLE_USAGE( .BOTH., #218 );
#146 = FACE_OUTER_BOUND( '', #219, .T. );
#147 = FACE_OUTER_BOUND( '', #220, .T. );
#148 = TOROIDAL_SURFACE( '', #221, 5.40000000000000, 1.25000000000000 );
#149 = SURFACE_STYLE_USAGE( .BOTH., #222 );
#150 = FACE_OUTER_BOUND( '', #223, .T. );
#151 = FACE_BOUND( '', #224, .T. );
#152 = CONICAL_SURFACE( '', #225, 3.50000000000000, 0.785398163397448 );
#153 = SURFACE_STYLE_USAGE( .BOTH., #226 );
#154 = FACE_OUTER_BOUND( '', #227, .T. );
#155 = SPHERICAL_SURFACE( '', #228, 11.0000000000000 );
#156 = PRODUCT_CONTEXT( '', #27, 'mechanical' );
#157 = PRODUCT_DEFINITION_FORMATION_WITH_SPECIFIED_SOURCE( ' ', 'NONE', #74, .NOT_KNOWN. );
#158 = CLOSED_SHELL( '', ( #47, #41, #73, #53, #55, #57, #61, #65, #69, #63, #45, #71, #49 ) );
#159 = ORIENTED_CLOSED_SHELL( '', *, #229, .T. );
#160 = CARTESIAN_POINT( '', ( 0.000000000000000, 0.000000000000000, 0.000000000000000 ) );
#161 = DIRECTION( '', ( 0.000000000000000, 0.000000000000000, 1.00000000000000 ) );
#162 = DIRECTION( '', ( 1.00000000000000, 0.000000000000000, 0.000000000000000 ) );
#163 =  ( LENGTH_UNIT(  )NAMED_UNIT( #83 )SI_UNIT( .MILLI., .METRE. ) );
#164 = SURFACE_SIDE_STYLE( '', ( #231 ) );
#165 = EDGE_LOOP( '', ( #232 ) );
#166 = EDGE_LOOP( '', ( #233 ) );
#167 = AXIS2_PLACEMENT_3D( '', #234, #235, #236 );
#168 = SURFACE_SIDE_STYLE( '', ( #237 ) );
#169 = EDGE_LOOP( '', ( #238 ) );
#170 = EDGE_LOOP( '', ( #239 ) );
#171 = AXIS2_PLACEMENT_3D( '', #240, #241, #242 );
#172 = SURFACE_SIDE_STYLE( '', ( #243 ) );
#173 = EDGE_LOOP( '', ( #244 ) );
#174 = AXIS2_PLACEMENT_3D( '', #245, #246, #247 );
#175 = SURFACE_SIDE_STYLE( '', ( #248 ) );
#176 = EDGE_LOOP( '', ( #249 ) );
#177 = EDGE_LOOP( '', ( #250 ) );
#178 = AXIS2_PLACEMENT_3D( '', #251, #252, #253 );
#179 = SURFACE_SIDE_STYLE( '', ( #254 ) );
#180 = EDGE_LOOP( '', ( #255 ) );
#181 = EDGE_LOOP( '', ( #256 ) );
#182 = AXIS2_PLACEMENT_3D( '', #257, #258, #259 );
#183 = SURFACE_SIDE_STYLE( '', ( #260 ) );
#184 = EDGE_LOOP( '', ( #261 ) );
#185 = EDGE_LOOP( '', ( #262 ) );
#186 = AXIS2_PLACEMENT_3D( '', #263, #264, #265 );
#187 = SURFACE_SIDE_STYLE( '', ( #266 ) );
#188 = EDGE_LOOP( '', ( #267 ) );
#189 = EDGE_LOOP( '', ( #268 ) );
#190 = AXIS2_PLACEMENT_3D( '', #269, #270, #271 );
#191 = SURFACE_SIDE_STYLE( '', ( #272 ) );
#192 = EDGE_LOOP( '', ( #273 ) );
#193 = EDGE_LOOP( '', ( #274 ) );
#194 = AXIS2_PLACEMENT_3D( '', #275, #276, #277 );
#195 = SURFACE_SIDE_STYLE( '', ( #278 ) );
#196 = EDGE_LOOP( '', ( #279 ) );
#197 = EDGE_LOOP( '', ( #280 ) );
#198 = AXIS2_PLACEMENT_3D( '', #281, #282, #283 );
#199 = SURFACE_SIDE_STYLE( '', ( #284 ) );
#200 = EDGE_LOOP( '', ( #285 ) );
#201 = AXIS2_PLACEMENT_3D( '', #286, #287, #288 );
#202 = SURFACE_SIDE_STYLE( '', ( #289 ) );
#203 = EDGE_LOOP( '', ( #290 ) );
#204 = EDGE_LOOP( '', ( #291 ) );
#205 = AXIS2_PLACEMENT_3D( '', #292, #293, #294 );
#206 = SURFACE_SIDE_STYLE( '', ( #295 ) );
#207 = EDGE_LOOP( '', ( #296 ) );
#208 = EDGE_LOOP( '', ( #297 ) );
#209 = AXIS2_PLACEMENT_3D( '', #298, #299, #300 );
#210 = SURFACE_SIDE_STYLE( '', ( #301 ) );
#211 = EDGE_LOOP( '', ( #302 ) );
#212 = EDGE_LOOP( '', ( #303 ) );
#213 = AXIS2_PLACEMENT_3D( '', #304, #305, #306 );
#214 = SURFACE_SIDE_STYLE( '', ( #307 ) );
#215 = EDGE_LOOP( '', ( #308 ) );
#216 = VERTEX_LOOP( '', #309 );
#217 = AXIS2_PLACEMENT_3D( '', #310, #311, #312 );
#218 = SURFACE_SIDE_STYLE( '', ( #313 ) );
#219 = EDGE_LOOP( '', ( #314 ) );
#220 = EDGE_LOOP( '', ( #315 ) );
#221 = AXIS2_PLACEMENT_3D( '', #316, #317, #318 );
#222 = SURFACE_SIDE_STYLE( '', ( #319 ) );
#223 = EDGE_LOOP( '', ( #320 ) );
#224 = EDGE_LOOP( '', ( #321 ) );
#225 = AXIS2_PLACEMENT_3D( '', #322, #323, #324 );
#226 = SURFACE_SIDE_STYLE( '', ( #325 ) );
#227 = EDGE_LOOP( '', ( #326 ) );
#228 = AXIS2_PLACEMENT_3D( '', #327, #328, #329 );
#229 = CLOSED_SHELL( '', ( #67, #51, #59, #43 ) );
#231 = SURFACE_STYLE_FILL_AREA( #330 );
#232 = ORIENTED_EDGE( '', *, *, #331, .F. );
#233 = ORIENTED_EDGE( '', *, *, #332, .T. );
#234 = CARTESIAN_POINT( '', ( 0.000000000000000, 0.000000000000000, 0.500000000000007 ) );
#235 = DIRECTION( '', ( 0.000000000000000, 0.000000000000000, 1.00000000000000 ) );
#236 = DIRECTION( '', ( 1.00000000000000, 0.000000000000000, 0.000000000000000 ) );
#237 = SURFACE_STYLE_FILL_AREA( #333 );
#238 = ORIENTED_EDGE( '', *, *, #334, .F. );
#239 = ORIENTED_EDGE( '', *, *, #335, .F. );
#240 = CARTESIAN_POINT( '', ( 2.32130231376414E-015, 9.60438863166910E-016, 16.0000000000000 ) );
#241 = DIRECTION( '', ( -1.45081394610259E-016, -6.00274289479319E-017, -1.00000000000000 ) );
#242 = DIRECTION( '', ( -5.55111512312578E-017, -1.00000000000000, 6.00274289479319E-017 ) );
#243 = SURFACE_STYLE_FILL_AREA( #336 );
#244 = ORIENTED_EDGE( '', *, *, #337, .T. );
#245 = CARTESIAN_POINT( '', ( -7.38654409205896E-015, -5.00000000000000, -49.0000000000000 ) );
#246 = DIRECTION( '', ( 1.45081394610259E-016, 6.00274289479319E-017, 1.00000000000000 ) );
#247 = DIRECTION( '', ( 5.55111512312578E-017, 1.00000000000000, -6.00274289479319E-017 ) );
#248 = SURFACE_STYLE_FILL_AREA( #338 );
#249 = ORIENTED_EDGE( '', *, *, #332, .F. );
#250 = ORIENTED_EDGE( '', *, *, #339, .F. );
#251 = CARTESIAN_POINT( '', ( 4.62235100464293E-016, 7.54912138127511, 1.25776544028220E-014 ) );
#252 = DIRECTION( '', ( 0.000000000000000, 0.000000000000000, 1.00000000000000 ) );
#253 = DIRECTION( '', ( 1.00000000000000, 0.000000000000000, 0.000000000000000 ) );
#254 = SURFACE_STYLE_FILL_AREA( #340 );
#255 = ORIENTED_EDGE( '', *, *, #341, .T. );
#256 = ORIENTED_EDGE( '', *, *, #342, .T. );
#257 = CARTESIAN_POINT( '', ( -8.29140170197628E-015, -3.43056756437431E-015, -57.1500000000000 ) );
#258 = DIRECTION( '', ( 1.45081394610259E-016, 6.00274289479319E-017, 1.00000000000000 ) );
#259 = DIRECTION( '', ( -5.55111512312578E-017, -1.00000000000000, 6.00274289479319E-017 ) );
#260 = SURFACE_STYLE_FILL_AREA( #343 );
#261 = ORIENTED_EDGE( '', *, *, #335, .T. );
#262 = ORIENTED_EDGE( '', *, *, #344, .T. );
#263 = CARTESIAN_POINT( '', ( 0.000000000000000, 0.000000000000000, 1.25776544028220E-014 ) );
#264 = DIRECTION( '', ( -0.000000000000000, 0.000000000000000, -1.00000000000000 ) );
#265 = DIRECTION( '', ( 0.000000000000000, 1.00000000000000, 0.000000000000000 ) );
#266 = SURFACE_STYLE_FILL_AREA( #345 );
#267 = ORIENTED_EDGE( '', *, *, #346, .F. );
#268 = ORIENTED_EDGE( '', *, *, #339, .T. );
#269 = CARTESIAN_POINT( '', ( -8.29140170197628E-015, -3.43056756437431E-015, -57.1500000000000 ) );
#270 = DIRECTION( '', ( 1.45081394610259E-016, 6.00274289479319E-017, 1.00000000000000 ) );
#271 = DIRECTION( '', ( -5.55111512312578E-017, -1.00000000000000, 6.00274289479319E-017 ) );
#272 = SURFACE_STYLE_FILL_AREA( #347 );
#273 = ORIENTED_EDGE( '', *, *, #348, .F. );
#274 = ORIENTED_EDGE( '', *, *, #349, .T. );
#275 = CARTESIAN_POINT( '', ( 0.000000000000000, 0.000000000000000, 28.9583510556634 ) );
#276 = DIRECTION( '', ( 0.000000000000000, 0.000000000000000, 1.00000000000000 ) );
#277 = DIRECTION( '', ( 1.00000000000000, 0.000000000000000, 0.000000000000000 ) );
#278 = SURFACE_STYLE_FILL_AREA( #350 );
#279 = ORIENTED_EDGE( '', *, *, #349, .F. );
#280 = ORIENTED_EDGE( '', *, *, #331, .T. );
#281 = CARTESIAN_POINT( '', ( 0.000000000000000, 0.000000000000000, 0.448478552756121 ) );
#282 = DIRECTION( '', ( -0.000000000000000, -0.000000000000000, 1.00000000000000 ) );
#283 = DIRECTION( '', ( 1.00000000000000, 0.000000000000000, 0.000000000000000 ) );
#284 = SURFACE_STYLE_FILL_AREA( #351 );
#285 = ORIENTED_EDGE( '', *, *, #334, .T. );
#286 = CARTESIAN_POINT( '', ( 2.46638370837440E-015, 1.02046629211484E-015, 17.0000000000000 ) );
#287 = DIRECTION( '', ( -1.45081394610259E-016, -6.00274289479319E-017, -1.00000000000000 ) );
#288 = DIRECTION( '', ( -5.55111512312578E-017, -1.00000000000000, 6.00274289479319E-017 ) );
#289 = SURFACE_STYLE_FILL_AREA( #352 );
#290 = ORIENTED_EDGE( '', *, *, #353, .T. );
#291 = ORIENTED_EDGE( '', *, *, #346, .T. );
#292 = CARTESIAN_POINT( '', ( -5.41091571874660E-015, -6.00000000000000, -35.0000000000000 ) );
#293 = DIRECTION( '', ( 1.45081394610259E-016, 6.00274289479319E-017, 1.00000000000000 ) );
#294 = DIRECTION( '', ( 5.55111512312578E-017, 1.00000000000000, -6.00274289479319E-017 ) );
#295 = SURFACE_STYLE_FILL_AREA( #354 );
#296 = ORIENTED_EDGE( '', *, *, #355, .F. );
#297 = ORIENTED_EDGE( '', *, *, #342, .F. );
#298 = CARTESIAN_POINT( '', ( -5.26873647493892E-015, -2.17993978652043E-015, -36.3157280717673 ) );
#299 = DIRECTION( '', ( -1.45081394610259E-016, -6.00274289479319E-017, -1.00000000000000 ) );
#300 = DIRECTION( '', ( -5.55111512312578E-017, -1.00000000000000, 6.00274289479319E-017 ) );
#301 = SURFACE_STYLE_FILL_AREA( #356 );
#302 = ORIENTED_EDGE( '', *, *, #355, .T. );
#303 = ORIENTED_EDGE( '', *, *, #357, .T. );
#304 = CARTESIAN_POINT( '', ( -8.29140170197628E-015, -3.43056756437431E-015, -57.1500000000000 ) );
#305 = DIRECTION( '', ( 1.45081394610259E-016, 6.00274289479319E-017, 1.00000000000000 ) );
#306 = DIRECTION( '', ( -5.55111512312578E-017, -1.00000000000000, 6.00274289479319E-017 ) );
#307 = SURFACE_STYLE_FILL_AREA( #358 );
#308 = ORIENTED_EDGE( '', *, *, #344, .F. );
#309 = VERTEX_POINT( '', #359 );
#310 = CARTESIAN_POINT( '', ( 0.000000000000000, 0.000000000000000, 25.0000000000000 ) );
#311 = DIRECTION( '', ( 0.000000000000000, -0.000000000000000, -1.00000000000000 ) );
#312 = DIRECTION( '', ( 0.000000000000000, -1.00000000000000, 0.000000000000000 ) );
#313 = SURFACE_STYLE_FILL_AREA( #360 );
#314 = ORIENTED_EDGE( '', *, *, #353, .F. );
#315 = ORIENTED_EDGE( '', *, *, #357, .F. );
#316 = CARTESIAN_POINT( '', ( -5.25920055462188E-015, -2.17599429936253E-015, -36.2500000000000 ) );
#317 = DIRECTION( '', ( 1.45081394610259E-016, 6.00274289479319E-017, 1.00000000000000 ) );
#318 = DIRECTION( '', ( 5.55111512312578E-017, 1.00000000000000, -6.00274289479319E-017 ) );
#319 = SURFACE_STYLE_FILL_AREA( #361 );
#320 = ORIENTED_EDGE( '', *, *, #341, .F. );
#321 = ORIENTED_EDGE( '', *, *, #337, .F. );
#322 = CARTESIAN_POINT( '', ( -7.10898833590268E-015, -2.94134401844866E-015, -49.0000000000000 ) );
#323 = DIRECTION( '', ( 1.45081394610259E-016, 6.00274289479319E-017, 1.00000000000000 ) );
#324 = DIRECTION( '', ( 5.55111512312578E-017, 1.00000000000000, -6.00274289479319E-017 ) );
#325 = SURFACE_STYLE_FILL_AREA( #362 );
#326 = ORIENTED_EDGE( '', *, *, #348, .T. );
#327 = CARTESIAN_POINT( '', ( 1.06217669540302E-031, 1.73472347597680E-015, 29.0000000000000 ) );
#328 = DIRECTION( '', ( 0.000000000000000, 0.000000000000000, 1.00000000000000 ) );
#329 = DIRECTION( '', ( 6.12303176911189E-017, 1.00000000000000, 0.000000000000000 ) );
#330 = FILL_AREA_STYLE( '', ( #363 ) );
#331 = EDGE_CURVE( '', #364, #364, #365, .T. );
#332 = EDGE_CURVE( '', #366, #366, #367, .T. );
#333 = FILL_AREA_STYLE( '', ( #368 ) );
#334 = EDGE_CURVE( '', #369, #369, #370, .F. );
#335 = EDGE_CURVE( '', #371, #371, #372, .T. );
#336 = FILL_AREA_STYLE( '', ( #373 ) );
#337 = EDGE_CURVE( '', #374, #374, #375, .F. );
#338 = FILL_AREA_STYLE( '', ( #376 ) );
#339 = EDGE_CURVE( '', #377, #377, #378, .F. );
#340 = FILL_AREA_STYLE( '', ( #379 ) );
#341 = EDGE_CURVE( '', #380, #380, #381, .T. );
#342 = EDGE_CURVE( '', #382, #382, #383, .T. );
#343 = FILL_AREA_STYLE( '', ( #384 ) );
#344 = EDGE_CURVE( '', #385, #385, #386, .T. );
#345 = FILL_AREA_STYLE( '', ( #387 ) );
#346 = EDGE_CURVE( '', #388, #388, #389, .T. );
#347 = FILL_AREA_STYLE( '', ( #390 ) );
#348 = EDGE_CURVE( '', #391, #391, #392, .T. );
#349 = EDGE_CURVE( '', #393, #393, #394, .T. );
#350 = FILL_AREA_STYLE( '', ( #395 ) );
#351 = FILL_AREA_STYLE( '', ( #396 ) );
#352 = FILL_AREA_STYLE( '', ( #397 ) );
#353 = EDGE_CURVE( '', #398, #398, #399, .T. );
#354 = FILL_AREA_STYLE( '', ( #400 ) );
#355 = EDGE_CURVE( '', #401, #401, #402, .F. );
#356 = FILL_AREA_STYLE( '', ( #403 ) );
#357 = EDGE_CURVE( '', #404, #404, #405, .F. );
#358 = FILL_AREA_STYLE( '', ( #406 ) );
#359 = CARTESIAN_POINT( '', ( 0.000000000000000, 0.000000000000000, 25.5860227203846 ) );
#360 = FILL_AREA_STYLE( '', ( #407 ) );
#361 = FILL_AREA_STYLE( '', ( #408 ) );
#362 = FILL_AREA_STYLE( '', ( #409 ) );
#363 = FILL_AREA_STYLE_COLOUR( '', #410 );
#364 = VERTEX_POINT( '', #411 );
#365 = CIRCLE( '', #412, 8.04645983793606 );
#366 = VERTEX_POINT( '', #413 );
#367 = CIRCLE( '', #414, 7.54912138127511 );
#368 = FILL_AREA_STYLE_COLOUR( '', #415 );
#369 = VERTEX_POINT( '', #416 );
#370 = CIRCLE( '', #417, 3.00000000000000 );
#371 = VERTEX_POINT( '', #418 );
#372 = CIRCLE( '', #419, 3.32350000000000 );
#373 = FILL_AREA_STYLE_COLOUR( '', #420 );
#374 = VERTEX_POINT( '', #421 );
#375 = CIRCLE( '', #422, 3.50000000000000 );
#376 = FILL_AREA_STYLE_COLOUR( '', #423 );
#377 = VERTEX_POINT( '', #424 );
#378 = CIRCLE( '', #425, 6.00000000000000 );
#379 = FILL_AREA_STYLE_COLOUR( '', #426 );
#380 = VERTEX_POINT( '', #427 );
#381 = CIRCLE( '', #428, 5.00000000000000 );
#382 = VERTEX_POINT( '', #429 );
#383 = CIRCLE( '', #430, 5.00000000000000 );
#384 = FILL_AREA_STYLE_COLOUR( '', #431 );
#385 = VERTEX_POINT( '', #432 );
#386 = CIRCLE( '', #433, 3.32350000000000 );
#387 = FILL_AREA_STYLE_COLOUR( '', #434 );
#388 = VERTEX_POINT( '', #435 );
#389 = CIRCLE( '', #436, 6.00000000000000 );
#390 = FILL_AREA_STYLE_COLOUR( '', #437 );
#391 = VERTEX_POINT( '', #438 );
#392 = CIRCLE( '', #439, 10.9864467548649 );
#393 = VERTEX_POINT( '', #440 );
#394 = CIRCLE( '', #441, 10.9393642930839 );
#395 = FILL_AREA_STYLE_COLOUR( '', #442 );
#396 = FILL_AREA_STYLE_COLOUR( '', #443 );
#397 = FILL_AREA_STYLE_COLOUR( '', #444 );
#398 = VERTEX_POINT( '', #445 );
#399 = CIRCLE( '', #446, 5.40000000000000 );
#400 = FILL_AREA_STYLE_COLOUR( '', #447 );
#401 = VERTEX_POINT( '', #448 );
#402 = CIRCLE( '', #449, 4.15000000000000 );
#403 = FILL_AREA_STYLE_COLOUR( '', #450 );
#404 = VERTEX_POINT( '', #451 );
#405 = CIRCLE( '', #452, 4.15000000000000 );
#406 = FILL_AREA_STYLE_COLOUR( '', #453 );
#407 = FILL_AREA_STYLE_COLOUR( '', #454 );
#408 = FILL_AREA_STYLE_COLOUR( '', #455 );
#409 = FILL_AREA_STYLE_COLOUR( '', #456 );
#410 = COLOUR_RGB( '', 0.200000002980232, 0.200000002980232, 0.200000002980232 );
#411 = CARTESIAN_POINT( '', ( 8.04645983793606, 0.000000000000000, 0.448478552756121 ) );
#412 = AXIS2_PLACEMENT_3D( '', #457, #458, #459 );
#413 = CARTESIAN_POINT( '', ( 7.54912138127511, 0.000000000000000, 6.93889390390723E-015 ) );
#414 = AXIS2_PLACEMENT_3D( '', #460, #461, #462 );
#415 = COLOUR_RGB( '', 0.666666686534882, 0.733333349227905, 0.866666674613953 );
#416 = CARTESIAN_POINT( '', ( 2.29985025468063E-015, -3.00000000000000, 17.0000000000000 ) );
#417 = AXIS2_PLACEMENT_3D( '', #463, #464, #465 );
#418 = CARTESIAN_POINT( '', ( -3.32350000000000, 1.00104741885019E-015, 16.6765000000000 ) );
#419 = AXIS2_PLACEMENT_3D( '', #466, #467, #468 );
#420 = COLOUR_RGB( '', 0.666666686534882, 0.733333349227905, 0.866666674613953 );
#421 = CARTESIAN_POINT( '', ( -6.91469930659328E-015, 3.50000000000000, -49.0000000000000 ) );
#422 = AXIS2_PLACEMENT_3D( '', #469, #470, #471 );
#423 = COLOUR_RGB( '', 0.200000002980232, 0.200000002980232, 0.200000002980232 );
#424 = CARTESIAN_POINT( '', ( 6.00000000000000, 7.70371977754894E-031, 1.38777878078145E-014 ) );
#425 = AXIS2_PLACEMENT_3D( '', #472, #473, #474 );
#426 = COLOUR_RGB( '', 0.752941191196442, 0.752941191196442, 0.752941191196442 );
#427 = CARTESIAN_POINT( '', ( -6.61381048783100E-015, 5.00000000000000, -47.5000000000000 ) );
#428 = AXIS2_PLACEMENT_3D( '', #475, #476, #477 );
#429 = CARTESIAN_POINT( '', ( -5.71810805404099E-015, -5.00000000000000, -37.5000000000000 ) );
#430 = AXIS2_PLACEMENT_3D( '', #478, #479, #480 );
#431 = COLOUR_RGB( '', 0.752941191196442, 0.752941191196442, 0.752941191196442 );
#432 = CARTESIAN_POINT( '', ( 0.000000000000000, -3.32350000000000, 25.0000000000000 ) );
#433 = AXIS2_PLACEMENT_3D( '', #481, #482, #483 );
#434 = COLOUR_RGB( '', 0.666666686534882, 0.733333349227905, 0.866666674613953 );
#435 = CARTESIAN_POINT( '', ( -5.41091571874660E-015, -6.00000000000000, -35.0000000000000 ) );
#436 = AXIS2_PLACEMENT_3D( '', #484, #485, #486 );
#437 = COLOUR_RGB( '', 0.200000002980232, 0.200000002980232, 0.200000002980232 );
#438 = CARTESIAN_POINT( '', ( 10.9864467548649, 0.000000000000000, 29.5458824988200 ) );
#439 = AXIS2_PLACEMENT_3D( '', #487, #488, #489 );
#440 = CARTESIAN_POINT( '', ( 10.9393642930839, 0.000000000000000, 28.3737934256141 ) );
#441 = AXIS2_PLACEMENT_3D( '', #490, #491, #492 );
#442 = COLOUR_RGB( '', 0.200000002980232, 0.200000002980232, 0.200000002980232 );
#443 = COLOUR_RGB( '', 0.666666686534882, 0.733333349227905, 0.866666674613953 );
#444 = COLOUR_RGB( '', 0.666666686534882, 0.733333349227905, 0.866666674613953 );
#445 = CARTESIAN_POINT( '', ( -4.77808859471026E-015, 5.40000000000000, -35.0000000000000 ) );
#446 = AXIS2_PLACEMENT_3D( '', #493, #494, #495 );
#447 = COLOUR_RGB( '', 0.666666686534882, 0.733333349227905, 0.866666674613953 );
#448 = CARTESIAN_POINT( '', ( -5.49910775254864E-015, -4.15000000000000, -36.3157280717673 ) );
#449 = AXIS2_PLACEMENT_3D( '', #496, #497, #498 );
#450 = COLOUR_RGB( '', 0.666666686534882, 0.733333349227905, 0.866666674613953 );
#451 = CARTESIAN_POINT( '', ( -5.02882927701216E-015, 4.15000000000000, -36.2500000000000 ) );
#452 = AXIS2_PLACEMENT_3D( '', #499, #500, #501 );
#453 = COLOUR_RGB( '', 0.200000002980232, 0.200000002980232, 0.200000002980232 );
#454 = COLOUR_RGB( '', 0.666666686534882, 0.733333349227905, 0.866666674613953 );
#455 = COLOUR_RGB( '', 0.666666686534882, 0.733333349227905, 0.866666674613953 );
#456 = COLOUR_RGB( '', 0.200000002980232, 0.200000002980232, 0.200000002980232 );
#457 = CARTESIAN_POINT( '', ( 0.000000000000000, 0.000000000000000, 0.448478552756121 ) );
#458 = DIRECTION( '', ( 0.000000000000000, 0.000000000000000, 1.00000000000000 ) );
#459 = DIRECTION( '', ( 1.00000000000000, 0.000000000000000, 0.000000000000000 ) );
#460 = CARTESIAN_POINT( '', ( 0.000000000000000, 0.000000000000000, 6.93889390390723E-015 ) );
#461 = DIRECTION( '', ( 0.000000000000000, 0.000000000000000, 1.00000000000000 ) );
#462 = DIRECTION( '', ( 1.00000000000000, 0.000000000000000, 0.000000000000000 ) );
#463 = CARTESIAN_POINT( '', ( 2.46638370837440E-015, 1.02046629211484E-015, 17.0000000000000 ) );
#464 = DIRECTION( '', ( -1.45081394610259E-016, -6.00274289479319E-017, -1.00000000000000 ) );
#465 = DIRECTION( '', ( -5.55111512312578E-017, -1.00000000000000, 6.00274289479319E-017 ) );
#466 = CARTESIAN_POINT( '', ( 2.41944987721798E-015, 1.00104741885019E-015, 16.6765000000000 ) );
#467 = DIRECTION( '', ( -1.45081394610259E-016, -6.00274289479319E-017, -1.00000000000000 ) );
#468 = DIRECTION( '', ( -1.00000000000000, 0.000000000000000, 1.45081394610259E-016 ) );
#469 = CARTESIAN_POINT( '', ( -7.10898833590268E-015, -2.94134401844866E-015, -49.0000000000000 ) );
#470 = DIRECTION( '', ( 1.45081394610259E-016, 6.00274289479319E-017, 1.00000000000000 ) );
#471 = DIRECTION( '', ( 5.55111512312578E-017, 1.00000000000000, -6.00274289479319E-017 ) );
#472 = CARTESIAN_POINT( '', ( 1.54074395550979E-030, 7.70371977754894E-031, 1.38777878078145E-014 ) );
#473 = DIRECTION( '', ( 0.000000000000000, 0.000000000000000, 1.00000000000000 ) );
#474 = DIRECTION( '', ( 1.00000000000000, 0.000000000000000, 0.000000000000000 ) );
#475 = CARTESIAN_POINT( '', ( -6.89136624398729E-015, -2.85130287502677E-015, -47.5000000000000 ) );
#476 = DIRECTION( '', ( 1.45081394610259E-016, 6.00274289479319E-017, 1.00000000000000 ) );
#477 = DIRECTION( '', ( 5.55111512312578E-017, 1.00000000000000, -6.00274289479319E-017 ) );
#478 = CARTESIAN_POINT( '', ( -5.44055229788470E-015, -2.25102858554745E-015, -37.5000000000000 ) );
#479 = DIRECTION( '', ( -1.45081394610259E-016, -6.00274289479319E-017, -1.00000000000000 ) );
#480 = DIRECTION( '', ( -5.55111512312578E-017, -1.00000000000000, 6.00274289479319E-017 ) );
#481 = CARTESIAN_POINT( '', ( 0.000000000000000, 0.000000000000000, 25.0000000000000 ) );
#482 = DIRECTION( '', ( 0.000000000000000, 0.000000000000000, 1.00000000000000 ) );
#483 = DIRECTION( '', ( 0.000000000000000, -1.00000000000000, 0.000000000000000 ) );
#484 = CARTESIAN_POINT( '', ( -5.07784881135905E-015, -2.10096001317762E-015, -35.0000000000000 ) );
#485 = DIRECTION( '', ( -1.45081394610259E-016, -6.00274289479319E-017, -1.00000000000000 ) );
#486 = DIRECTION( '', ( -5.55111512312578E-017, -1.00000000000000, 6.00274289479319E-017 ) );
#487 = CARTESIAN_POINT( '', ( 0.000000000000000, 0.000000000000000, 29.5458824988200 ) );
#488 = DIRECTION( '', ( 0.000000000000000, 0.000000000000000, 1.00000000000000 ) );
#489 = DIRECTION( '', ( 1.00000000000000, 0.000000000000000, 0.000000000000000 ) );
#490 = CARTESIAN_POINT( '', ( 0.000000000000000, 0.000000000000000, 28.3737934256141 ) );
#491 = DIRECTION( '', ( 0.000000000000000, 0.000000000000000, 1.00000000000000 ) );
#492 = DIRECTION( '', ( 1.00000000000000, 0.000000000000000, 0.000000000000000 ) );
#493 = CARTESIAN_POINT( '', ( -5.07784881135905E-015, -2.10096001317762E-015, -35.0000000000000 ) );
#494 = DIRECTION( '', ( 1.45081394610259E-016, 6.00274289479319E-017, 1.00000000000000 ) );
#495 = DIRECTION( '', ( 5.55111512312578E-017, 1.00000000000000, -6.00274289479319E-017 ) );
#496 = CARTESIAN_POINT( '', ( -5.26873647493892E-015, -2.17993978652043E-015, -36.3157280717673 ) );
#497 = DIRECTION( '', ( -1.45081394610259E-016, -6.00274289479319E-017, -1.00000000000000 ) );
#498 = DIRECTION( '', ( -5.55111512312578E-017, -1.00000000000000, 6.00274289479319E-017 ) );
#499 = CARTESIAN_POINT( '', ( -5.25920055462188E-015, -2.17599429936253E-015, -36.2500000000000 ) );
#500 = DIRECTION( '', ( 1.45081394610259E-016, 6.00274289479319E-017, 1.00000000000000 ) );
#501 = DIRECTION( '', ( 5.55111512312578E-017, 1.00000000000000, -6.00274289479319E-017 ) );
ENDSEC;
END-ISO-10303-21;
