ISO-10303-21;
HEADER;
FILE_DESCRIPTION( ( 'Unknown' ), '1' );
FILE_NAME( '//SBS2003/HD_Usb/Disegni/10_GAMM_CD/2- Gamm_STEP/03 - MANOPOLE/03_16.2-BI/6135110_BI22_M08x115.stp', 'Unknown', ( 'Unknown' ), ( 'Unknown' ), 'PSStep 11.0', 'Unknown', '  ' );
FILE_SCHEMA( ( 'AUTOMOTIVE_DESIGN { 1 0 10303 214 1 1 1 1 }' ) );
ENDSEC;
DATA;
#1 = MECHANICAL_DESIGN_GEOMETRIC_PRESENTATION_REPRESENTATION( ' ', ( #10, #11, #12, #13, #14, #15, #16, #17, #18, #19, #20, #21, #22, #23, #24, #25, #26 ), #6 );
#2 = PRODUCT_DEFINITION_CONTEXT( '', #27, 'design' );
#3 = APPLICATION_PROTOCOL_DEFINITION( 'INTERNATIONAL STANDARD', 'automotive_design', 2001, #27 );
#4 = PRODUCT_CATEGORY_RELATIONSHIP( 'NONE', 'NONE', #28, #29 );
#5 = SHAPE_DEFINITION_REPRESENTATION( #30, #31 );
#6 =  ( GEOMETRIC_REPRESENTATION_CONTEXT( 3 )GLOBAL_UNCERTAINTY_ASSIGNED_CONTEXT( ( #34 ) )GLOBAL_UNIT_ASSIGNED_CONTEXT( ( #36, #37, #38 ) )REPRESENTATION_CONTEXT( 'NONE', 'WORKSPACE' ) );
#10 = STYLED_ITEM( '', ( #40 ), #41 );
#11 = STYLED_ITEM( '', ( #42 ), #43 );
#12 = STYLED_ITEM( '', ( #44 ), #45 );
#13 = STYLED_ITEM( '', ( #46 ), #47 );
#14 = STYLED_ITEM( '', ( #48 ), #49 );
#15 = STYLED_ITEM( '', ( #50 ), #51 );
#16 = STYLED_ITEM( '', ( #52 ), #53 );
#17 = STYLED_ITEM( '', ( #54 ), #55 );
#18 = STYLED_ITEM( '', ( #56 ), #57 );
#19 = STYLED_ITEM( '', ( #58 ), #59 );
#20 = STYLED_ITEM( '', ( #60 ), #61 );
#21 = STYLED_ITEM( '', ( #62 ), #63 );
#22 = STYLED_ITEM( '', ( #64 ), #65 );
#23 = STYLED_ITEM( '', ( #66 ), #67 );
#24 = STYLED_ITEM( '', ( #68 ), #69 );
#25 = STYLED_ITEM( '', ( #70 ), #71 );
#26 = STYLED_ITEM( '', ( #72 ), #73 );
#27 = APPLICATION_CONTEXT( 'core data for automotive mechanical design processes' );
#28 = PRODUCT_CATEGORY( 'part', 'NONE' );
#29 = PRODUCT_RELATED_PRODUCT_CATEGORY( 'detail', ' ', ( #74 ) );
#30 = PRODUCT_DEFINITION_SHAPE( 'NONE', 'NONE', #75 );
#31 = ADVANCED_BREP_SHAPE_REPRESENTATION( '6140003_MCC22x40', ( #76, #77 ), #6 );
#34 = UNCERTAINTY_MEASURE_WITH_UNIT( LENGTH_MEASURE( 0.00100000000000000 ), #36, '', '' );
#36 =  ( CONVERSION_BASED_UNIT( 'MILLIMETRE', #80 )LENGTH_UNIT(  )NAMED_UNIT( #83 ) );
#37 =  ( NAMED_UNIT( #85 )PLANE_ANGLE_UNIT(  )SI_UNIT( $, .RADIAN. ) );
#38 =  ( NAMED_UNIT( #85 )SI_UNIT( $, .STERADIAN. )SOLID_ANGLE_UNIT(  ) );
#40 = PRESENTATION_STYLE_ASSIGNMENT( ( #91 ) );
#41 = ADVANCED_FACE( '', ( #92 ), #93, .T. );
#42 = PRESENTATION_STYLE_ASSIGNMENT( ( #94 ) );
#43 = ADVANCED_FACE( '', ( #95, #96 ), #97, .T. );
#44 = PRESENTATION_STYLE_ASSIGNMENT( ( #98 ) );
#45 = ADVANCED_FACE( '', ( #99, #100 ), #101, .F. );
#46 = PRESENTATION_STYLE_ASSIGNMENT( ( #102 ) );
#47 = ADVANCED_FACE( '', ( #103 ), #104, .F. );
#48 = PRESENTATION_STYLE_ASSIGNMENT( ( #105 ) );
#49 = ADVANCED_FACE( '', ( #106, #107 ), #108, .T. );
#50 = PRESENTATION_STYLE_ASSIGNMENT( ( #109 ) );
#51 = ADVANCED_FACE( '', ( #110, #111 ), #112, .T. );
#52 = PRESENTATION_STYLE_ASSIGNMENT( ( #113 ) );
#53 = ADVANCED_FACE( '', ( #114 ), #115, .F. );
#54 = PRESENTATION_STYLE_ASSIGNMENT( ( #116 ) );
#55 = ADVANCED_FACE( '', ( #117, #118 ), #119, .F. );
#56 = PRESENTATION_STYLE_ASSIGNMENT( ( #120 ) );
#57 = ADVANCED_FACE( '', ( #121, #122 ), #123, .T. );
#58 = PRESENTATION_STYLE_ASSIGNMENT( ( #124 ) );
#59 = ADVANCED_FACE( '', ( #125, #126 ), #127, .F. );
#60 = PRESENTATION_STYLE_ASSIGNMENT( ( #128 ) );
#61 = ADVANCED_FACE( '', ( #129, #130 ), #131, .T. );
#62 = PRESENTATION_STYLE_ASSIGNMENT( ( #132 ) );
#63 = ADVANCED_FACE( '', ( #133, #134 ), #135, .T. );
#64 = PRESENTATION_STYLE_ASSIGNMENT( ( #136 ) );
#65 = ADVANCED_FACE( '', ( #137, #138 ), #139, .F. );
#66 = PRESENTATION_STYLE_ASSIGNMENT( ( #140 ) );
#67 = ADVANCED_FACE( '', ( #141, #142 ), #143, .F. );
#68 = PRESENTATION_STYLE_ASSIGNMENT( ( #144 ) );
#69 = ADVANCED_FACE( '', ( #145, #146 ), #147, .F. );
#70 = PRESENTATION_STYLE_ASSIGNMENT( ( #148 ) );
#71 = ADVANCED_FACE( '', ( #149, #150 ), #151, .F. );
#72 = PRESENTATION_STYLE_ASSIGNMENT( ( #152 ) );
#73 = ADVANCED_FACE( '', ( #153, #154 ), #155, .T. );
#74 = PRODUCT( '6140003_MCC22x40', '6140003_MCC22x40', 'PART-6140003_MCC22x40-DESC', ( #156 ) );
#75 = PRODUCT_DEFINITION( 'NONE', 'NONE', #157, #2 );
#76 = BREP_WITH_VOIDS( '6140003_MCC22x40', #158, ( #159 ) );
#77 = AXIS2_PLACEMENT_3D( '', #160, #161, #162 );
#80 = LENGTH_MEASURE_WITH_UNIT( LENGTH_MEASURE( 1.00000000000000 ), #163 );
#83 = DIMENSIONAL_EXPONENTS( 1.00000000000000, 0.000000000000000, 0.000000000000000, 0.000000000000000, 0.000000000000000, 0.000000000000000, 0.000000000000000 );
#85 = DIMENSIONAL_EXPONENTS( 0.000000000000000, 0.000000000000000, 0.000000000000000, 0.000000000000000, 0.000000000000000, 0.000000000000000, 0.000000000000000 );
#91 = SURFACE_STYLE_USAGE( .BOTH., #164 );
#92 = FACE_OUTER_BOUND( '', #165, .T. );
#93 = SPHERICAL_SURFACE( '', #166, 11.0000000000000 );
#94 = SURFACE_STYLE_USAGE( .BOTH., #167 );
#95 = FACE_OUTER_BOUND( '', #168, .T. );
#96 = FACE_BOUND( '', #169, .T. );
#97 = CONICAL_SURFACE( '', #170, 8.04645983793606, 0.103226120097149 );
#98 = SURFACE_STYLE_USAGE( .BOTH., #171 );
#99 = FACE_OUTER_BOUND( '', #172, .T. );
#100 = FACE_OUTER_BOUND( '', #173, .T. );
#101 = CYLINDRICAL_SURFACE( '', #174, 3.32350000000000 );
#102 = SURFACE_STYLE_USAGE( .BOTH., #175 );
#103 = FACE_OUTER_BOUND( '', #176, .T. );
#104 = PLANE( '', #177 );
#105 = SURFACE_STYLE_USAGE( .BOTH., #178 );
#106 = FACE_OUTER_BOUND( '', #179, .T. );
#107 = FACE_BOUND( '', #180, .T. );
#108 = CONICAL_SURFACE( '', #181, 3.00000000000000, 0.785398163397448 );
#109 = SURFACE_STYLE_USAGE( .BOTH., #182 );
#110 = FACE_OUTER_BOUND( '', #183, .T. );
#111 = FACE_OUTER_BOUND( '', #184, .T. );
#112 = CYLINDRICAL_SURFACE( '', #185, 3.25000000000000 );
#113 = SURFACE_STYLE_USAGE( .BOTH., #186 );
#114 = FACE_OUTER_BOUND( '', #187, .T. );
#115 = PLANE( '', #188 );
#116 = SURFACE_STYLE_USAGE( .BOTH., #189 );
#117 = FACE_OUTER_BOUND( '', #190, .T. );
#118 = FACE_OUTER_BOUND( '', #191, .T. );
#119 = TOROIDAL_SURFACE( '', #192, 4.25000000000000, 1.00000000000000 );
#120 = SURFACE_STYLE_USAGE( .BOTH., #193 );
#121 = FACE_OUTER_BOUND( '', #194, .T. );
#122 = FACE_OUTER_BOUND( '', #195, .T. );
#123 = TOROIDAL_SURFACE( '', #196, 7.54912138127511, 0.500000000000000 );
#124 = SURFACE_STYLE_USAGE( .BOTH., #197 );
#125 = FACE_BOUND( '', #198, .T. );
#126 = FACE_OUTER_BOUND( '', #199, .T. );
#127 = PLANE( '', #200 );
#128 = SURFACE_STYLE_USAGE( .BOTH., #201 );
#129 = FACE_OUTER_BOUND( '', #202, .T. );
#130 = FACE_OUTER_BOUND( '', #203, .T. );
#131 = CYLINDRICAL_SURFACE( '', #204, 5.00000000000000 );
#132 = SURFACE_STYLE_USAGE( .BOTH., #205 );
#133 = FACE_OUTER_BOUND( '', #206, .T. );
#134 = FACE_OUTER_BOUND( '', #207, .T. );
#135 = CYLINDRICAL_SURFACE( '', #208, 4.00000000000000 );
#136 = SURFACE_STYLE_USAGE( .BOTH., #209 );
#137 = FACE_OUTER_BOUND( '', #210, .T. );
#138 = FACE_OUTER_BOUND( '', #211, .T. );
#139 = TOROIDAL_SURFACE( '', #212, 4.25000000000000, 1.00000000000000 );
#140 = SURFACE_STYLE_USAGE( .BOTH., #213 );
#141 = FACE_OUTER_BOUND( '', #214, .T. );
#142 = FACE_OUTER_BOUND( '', #215, .T. );
#143 = TOROIDAL_SURFACE( '', #216, 10.9999211526918, 0.587685933211269 );
#144 = SURFACE_STYLE_USAGE( .BOTH., #217 );
#145 = FACE_OUTER_BOUND( '', #218, .T. );
#146 = FACE_BOUND( '', #219, .T. );
#147 = PLANE( '', #220 );
#148 = SURFACE_STYLE_USAGE( .BOTH., #221 );
#149 = FACE_OUTER_BOUND( '', #222, .T. );
#150 = FACE_BOUND( '', #223, .T. );
#151 = CONICAL_SURFACE( '', #224, 3.32350000000000, 1.39626340159546 );
#152 = SURFACE_STYLE_USAGE( .BOTH., #225 );
#153 = FACE_BOUND( '', #226, .T. );
#154 = FACE_OUTER_BOUND( '', #227, .T. );
#155 = CONICAL_SURFACE( '', #228, 4.00000000000000, 0.785398163397448 );
#156 = PRODUCT_CONTEXT( '', #27, 'mechanical' );
#157 = PRODUCT_DEFINITION_FORMATION_WITH_SPECIFIED_SOURCE( ' ', 'NONE', #74, .NOT_KNOWN. );
#158 = CLOSED_SHELL( '', ( #69, #57, #55, #41, #61, #67, #43, #59, #51, #49, #65, #53, #63 ) );
#159 = ORIENTED_CLOSED_SHELL( '', *, #229, .T. );
#160 = CARTESIAN_POINT( '', ( 0.000000000000000, 0.000000000000000, 0.000000000000000 ) );
#161 = DIRECTION( '', ( 0.000000000000000, 0.000000000000000, 1.00000000000000 ) );
#162 = DIRECTION( '', ( 1.00000000000000, 0.000000000000000, 0.000000000000000 ) );
#163 =  ( LENGTH_UNIT(  )NAMED_UNIT( #83 )SI_UNIT( .MILLI., .METRE. ) );
#164 = SURFACE_SIDE_STYLE( '', ( #231 ) );
#165 = EDGE_LOOP( '', ( #232 ) );
#166 = AXIS2_PLACEMENT_3D( '', #233, #234, #235 );
#167 = SURFACE_SIDE_STYLE( '', ( #236 ) );
#168 = EDGE_LOOP( '', ( #237 ) );
#169 = EDGE_LOOP( '', ( #238 ) );
#170 = AXIS2_PLACEMENT_3D( '', #239, #240, #241 );
#171 = SURFACE_SIDE_STYLE( '', ( #242 ) );
#172 = EDGE_LOOP( '', ( #243 ) );
#173 = EDGE_LOOP( '', ( #244 ) );
#174 = AXIS2_PLACEMENT_3D( '', #245, #246, #247 );
#175 = SURFACE_SIDE_STYLE( '', ( #248 ) );
#176 = EDGE_LOOP( '', ( #249 ) );
#177 = AXIS2_PLACEMENT_3D( '', #250, #251, #252 );
#178 = SURFACE_SIDE_STYLE( '', ( #253 ) );
#179 = EDGE_LOOP( '', ( #254 ) );
#180 = EDGE_LOOP( '', ( #255 ) );
#181 = AXIS2_PLACEMENT_3D( '', #256, #257, #258 );
#182 = SURFACE_SIDE_STYLE( '', ( #259 ) );
#183 = EDGE_LOOP( '', ( #260 ) );
#184 = EDGE_LOOP( '', ( #261 ) );
#185 = AXIS2_PLACEMENT_3D( '', #262, #263, #264 );
#186 = SURFACE_SIDE_STYLE( '', ( #265 ) );
#187 = EDGE_LOOP( '', ( #266 ) );
#188 = AXIS2_PLACEMENT_3D( '', #267, #268, #269 );
#189 = SURFACE_SIDE_STYLE( '', ( #270 ) );
#190 = EDGE_LOOP( '', ( #271 ) );
#191 = EDGE_LOOP( '', ( #272 ) );
#192 = AXIS2_PLACEMENT_3D( '', #273, #274, #275 );
#193 = SURFACE_SIDE_STYLE( '', ( #276 ) );
#194 = EDGE_LOOP( '', ( #277 ) );
#195 = EDGE_LOOP( '', ( #278 ) );
#196 = AXIS2_PLACEMENT_3D( '', #279, #280, #281 );
#197 = SURFACE_SIDE_STYLE( '', ( #282 ) );
#198 = EDGE_LOOP( '', ( #283 ) );
#199 = EDGE_LOOP( '', ( #284 ) );
#200 = AXIS2_PLACEMENT_3D( '', #285, #286, #287 );
#201 = SURFACE_SIDE_STYLE( '', ( #288 ) );
#202 = EDGE_LOOP( '', ( #289 ) );
#203 = EDGE_LOOP( '', ( #290 ) );
#204 = AXIS2_PLACEMENT_3D( '', #291, #292, #293 );
#205 = SURFACE_SIDE_STYLE( '', ( #294 ) );
#206 = EDGE_LOOP( '', ( #295 ) );
#207 = EDGE_LOOP( '', ( #296 ) );
#208 = AXIS2_PLACEMENT_3D( '', #297, #298, #299 );
#209 = SURFACE_SIDE_STYLE( '', ( #300 ) );
#210 = EDGE_LOOP( '', ( #301 ) );
#211 = EDGE_LOOP( '', ( #302 ) );
#212 = AXIS2_PLACEMENT_3D( '', #303, #304, #305 );
#213 = SURFACE_SIDE_STYLE( '', ( #306 ) );
#214 = EDGE_LOOP( '', ( #307 ) );
#215 = EDGE_LOOP( '', ( #308 ) );
#216 = AXIS2_PLACEMENT_3D( '', #309, #310, #311 );
#217 = SURFACE_SIDE_STYLE( '', ( #312 ) );
#218 = EDGE_LOOP( '', ( #313 ) );
#219 = EDGE_LOOP( '', ( #314 ) );
#220 = AXIS2_PLACEMENT_3D( '', #315, #316, #317 );
#221 = SURFACE_SIDE_STYLE( '', ( #318 ) );
#222 = EDGE_LOOP( '', ( #319 ) );
#223 = VERTEX_LOOP( '', #320 );
#224 = AXIS2_PLACEMENT_3D( '', #321, #322, #323 );
#225 = SURFACE_SIDE_STYLE( '', ( #324 ) );
#226 = EDGE_LOOP( '', ( #325 ) );
#227 = EDGE_LOOP( '', ( #326 ) );
#228 = AXIS2_PLACEMENT_3D( '', #327, #328, #329 );
#229 = CLOSED_SHELL( '', ( #71, #45, #47, #73 ) );
#231 = SURFACE_STYLE_FILL_AREA( #330 );
#232 = ORIENTED_EDGE( '', *, *, #331, .T. );
#233 = CARTESIAN_POINT( '', ( 1.06217669540302E-031, 1.73472347597680E-015, 29.0000000000000 ) );
#234 = DIRECTION( '', ( 0.000000000000000, 0.000000000000000, 1.00000000000000 ) );
#235 = DIRECTION( '', ( 6.12303176911189E-017, 1.00000000000000, 0.000000000000000 ) );
#236 = SURFACE_STYLE_FILL_AREA( #332 );
#237 = ORIENTED_EDGE( '', *, *, #333, .F. );
#238 = ORIENTED_EDGE( '', *, *, #334, .T. );
#239 = CARTESIAN_POINT( '', ( 0.000000000000000, 0.000000000000000, 0.448478552756121 ) );
#240 = DIRECTION( '', ( -0.000000000000000, -0.000000000000000, 1.00000000000000 ) );
#241 = DIRECTION( '', ( 1.00000000000000, 0.000000000000000, 0.000000000000000 ) );
#242 = SURFACE_STYLE_FILL_AREA( #335 );
#243 = ORIENTED_EDGE( '', *, *, #336, .T. );
#244 = ORIENTED_EDGE( '', *, *, #337, .T. );
#245 = CARTESIAN_POINT( '', ( 0.000000000000000, 0.000000000000000, 1.25776544028220E-014 ) );
#246 = DIRECTION( '', ( -0.000000000000000, 0.000000000000000, -1.00000000000000 ) );
#247 = DIRECTION( '', ( 0.000000000000000, 1.00000000000000, 0.000000000000000 ) );
#248 = SURFACE_STYLE_FILL_AREA( #338 );
#249 = ORIENTED_EDGE( '', *, *, #339, .T. );
#250 = CARTESIAN_POINT( '', ( -7.92838676440486E-015, 4.00000000000000, 17.0000000000000 ) );
#251 = DIRECTION( '', ( 9.58765109739683E-018, 1.68039942289044E-016, -1.00000000000000 ) );
#252 = DIRECTION( '', ( 5.55111512312578E-017, -1.00000000000000, -1.68039942289044E-016 ) );
#253 = SURFACE_STYLE_FILL_AREA( #340 );
#254 = ORIENTED_EDGE( '', *, *, #341, .F. );
#255 = ORIENTED_EDGE( '', *, *, #342, .F. );
#256 = CARTESIAN_POINT( '', ( -6.46430517458609E-015, 1.33381929813992E-014, -87.0000000000000 ) );
#257 = DIRECTION( '', ( -9.58765109739683E-018, -1.68039942289044E-016, 1.00000000000000 ) );
#258 = DIRECTION( '', ( -5.55111512312578E-017, 1.00000000000000, 1.68039942289044E-016 ) );
#259 = SURFACE_STYLE_FILL_AREA( #343 );
#260 = ORIENTED_EDGE( '', *, *, #344, .T. );
#261 = ORIENTED_EDGE( '', *, *, #345, .T. );
#262 = CARTESIAN_POINT( '', ( -6.48827430232958E-015, 1.29180931256766E-014, -84.5000000000000 ) );
#263 = DIRECTION( '', ( -9.58765109739683E-018, -1.68039942289044E-016, 1.00000000000000 ) );
#264 = DIRECTION( '', ( 5.55111512312578E-017, -1.00000000000000, -1.68039942289044E-016 ) );
#265 = SURFACE_STYLE_FILL_AREA( #346 );
#266 = ORIENTED_EDGE( '', *, *, #342, .T. );
#267 = CARTESIAN_POINT( '', ( -6.46430517458609E-015, 1.62051922317680E-014, -87.0000000000000 ) );
#268 = DIRECTION( '', ( -9.58765109739683E-018, -1.68039942289044E-016, 1.00000000000000 ) );
#269 = DIRECTION( '', ( -5.55111512312578E-017, 1.00000000000000, 1.68039942289044E-016 ) );
#270 = SURFACE_STYLE_FILL_AREA( #347 );
#271 = ORIENTED_EDGE( '', *, *, #344, .F. );
#272 = ORIENTED_EDGE( '', *, *, #348, .F. );
#273 = CARTESIAN_POINT( '', ( -6.56946488881742E-015, 1.14950895840130E-014, -76.0317541634481 ) );
#274 = DIRECTION( '', ( 9.58765109739683E-018, 1.68039942289045E-016, -1.00000000000000 ) );
#275 = DIRECTION( '', ( 5.55111512312578E-017, -1.00000000000000, -1.68039942289044E-016 ) );
#276 = SURFACE_STYLE_FILL_AREA( #349 );
#277 = ORIENTED_EDGE( '', *, *, #334, .F. );
#278 = ORIENTED_EDGE( '', *, *, #350, .T. );
#279 = CARTESIAN_POINT( '', ( 0.000000000000000, 0.000000000000000, 0.500000000000007 ) );
#280 = DIRECTION( '', ( 0.000000000000000, 0.000000000000000, 1.00000000000000 ) );
#281 = DIRECTION( '', ( 1.00000000000000, 0.000000000000000, 0.000000000000000 ) );
#282 = SURFACE_STYLE_FILL_AREA( #351 );
#283 = ORIENTED_EDGE( '', *, *, #352, .T. );
#284 = ORIENTED_EDGE( '', *, *, #353, .T. );
#285 = CARTESIAN_POINT( '', ( -7.16306433236673E-015, 5.00000000000000, -75.0000000000000 ) );
#286 = DIRECTION( '', ( -9.58765109739683E-018, -1.68039942289044E-016, 1.00000000000000 ) );
#287 = DIRECTION( '', ( -5.55111512312578E-017, 1.00000000000000, 1.68039942289044E-016 ) );
#288 = SURFACE_STYLE_FILL_AREA( #354 );
#289 = ORIENTED_EDGE( '', *, *, #353, .F. );
#290 = ORIENTED_EDGE( '', *, *, #355, .T. );
#291 = CARTESIAN_POINT( '', ( -6.48827430232958E-015, 1.29180931256766E-014, -84.5000000000000 ) );
#292 = DIRECTION( '', ( -9.58765109739683E-018, -1.68039942289045E-016, 1.00000000000000 ) );
#293 = DIRECTION( '', ( 5.55111512312578E-017, -1.00000000000000, -1.68039942289045E-016 ) );
#294 = SURFACE_STYLE_FILL_AREA( #356 );
#295 = ORIENTED_EDGE( '', *, *, #341, .T. );
#296 = ORIENTED_EDGE( '', *, *, #348, .T. );
#297 = CARTESIAN_POINT( '', ( -6.48827430232958E-015, 1.29180931256766E-014, -84.5000000000000 ) );
#298 = DIRECTION( '', ( -9.58765109739683E-018, -1.68039942289044E-016, 1.00000000000000 ) );
#299 = DIRECTION( '', ( 5.55111512312578E-017, -1.00000000000000, -1.68039942289044E-016 ) );
#300 = SURFACE_STYLE_FILL_AREA( #357 );
#301 = ORIENTED_EDGE( '', *, *, #352, .F. );
#302 = ORIENTED_EDGE( '', *, *, #345, .F. );
#303 = CARTESIAN_POINT( '', ( -6.56976933665745E-015, 1.14897536162197E-014, -76.0000000000000 ) );
#304 = DIRECTION( '', ( -9.58765109739683E-018, -1.68039942289045E-016, 1.00000000000000 ) );
#305 = DIRECTION( '', ( -5.55111512312578E-017, 1.00000000000000, 1.68039942289044E-016 ) );
#306 = SURFACE_STYLE_FILL_AREA( #358 );
#307 = ORIENTED_EDGE( '', *, *, #331, .F. );
#308 = ORIENTED_EDGE( '', *, *, #333, .T. );
#309 = CARTESIAN_POINT( '', ( 0.000000000000000, 0.000000000000000, 28.9583510556634 ) );
#310 = DIRECTION( '', ( 0.000000000000000, 0.000000000000000, 1.00000000000000 ) );
#311 = DIRECTION( '', ( 1.00000000000000, 0.000000000000000, 0.000000000000000 ) );
#312 = SURFACE_STYLE_FILL_AREA( #359 );
#313 = ORIENTED_EDGE( '', *, *, #350, .F. );
#314 = ORIENTED_EDGE( '', *, *, #355, .F. );
#315 = CARTESIAN_POINT( '', ( 4.62235100464293E-016, 7.54912138127511, 1.25776544028220E-014 ) );
#316 = DIRECTION( '', ( 0.000000000000000, 0.000000000000000, 1.00000000000000 ) );
#317 = DIRECTION( '', ( 1.00000000000000, 0.000000000000000, 0.000000000000000 ) );
#318 = SURFACE_STYLE_FILL_AREA( #360 );
#319 = ORIENTED_EDGE( '', *, *, #337, .F. );
#320 = VERTEX_POINT( '', #361 );
#321 = CARTESIAN_POINT( '', ( 0.000000000000000, 0.000000000000000, 25.0000000000000 ) );
#322 = DIRECTION( '', ( 0.000000000000000, -0.000000000000000, -1.00000000000000 ) );
#323 = DIRECTION( '', ( 0.000000000000000, -1.00000000000000, 0.000000000000000 ) );
#324 = SURFACE_STYLE_FILL_AREA( #362 );
#325 = ORIENTED_EDGE( '', *, *, #339, .F. );
#326 = ORIENTED_EDGE( '', *, *, #336, .F. );
#327 = CARTESIAN_POINT( '', ( -7.45183323761796E-015, -3.96992107437239E-015, 16.0000000000000 ) );
#328 = DIRECTION( '', ( 9.58765109739683E-018, 1.68039942289046E-016, -1.00000000000000 ) );
#329 = DIRECTION( '', ( 5.55111512312578E-017, -1.00000000000000, -1.68039942289046E-016 ) );
#330 = FILL_AREA_STYLE( '', ( #363 ) );
#331 = EDGE_CURVE( '', #364, #364, #365, .T. );
#332 = FILL_AREA_STYLE( '', ( #366 ) );
#333 = EDGE_CURVE( '', #367, #367, #368, .T. );
#334 = EDGE_CURVE( '', #369, #369, #370, .T. );
#335 = FILL_AREA_STYLE( '', ( #371 ) );
#336 = EDGE_CURVE( '', #372, #372, #373, .T. );
#337 = EDGE_CURVE( '', #374, #374, #375, .T. );
#338 = FILL_AREA_STYLE( '', ( #376 ) );
#339 = EDGE_CURVE( '', #377, #377, #378, .F. );
#340 = FILL_AREA_STYLE( '', ( #379 ) );
#341 = EDGE_CURVE( '', #380, #380, #381, .T. );
#342 = EDGE_CURVE( '', #382, #382, #383, .F. );
#343 = FILL_AREA_STYLE( '', ( #384 ) );
#344 = EDGE_CURVE( '', #385, #385, #386, .F. );
#345 = EDGE_CURVE( '', #387, #387, #388, .F. );
#346 = FILL_AREA_STYLE( '', ( #389 ) );
#347 = FILL_AREA_STYLE( '', ( #390 ) );
#348 = EDGE_CURVE( '', #391, #391, #392, .T. );
#349 = FILL_AREA_STYLE( '', ( #393 ) );
#350 = EDGE_CURVE( '', #394, #394, #395, .T. );
#351 = FILL_AREA_STYLE( '', ( #396 ) );
#352 = EDGE_CURVE( '', #397, #397, #398, .T. );
#353 = EDGE_CURVE( '', #399, #399, #400, .T. );
#354 = FILL_AREA_STYLE( '', ( #401 ) );
#355 = EDGE_CURVE( '', #402, #402, #403, .F. );
#356 = FILL_AREA_STYLE( '', ( #404 ) );
#357 = FILL_AREA_STYLE( '', ( #405 ) );
#358 = FILL_AREA_STYLE( '', ( #406 ) );
#359 = FILL_AREA_STYLE( '', ( #407 ) );
#360 = FILL_AREA_STYLE( '', ( #408 ) );
#361 = CARTESIAN_POINT( '', ( 0.000000000000000, 0.000000000000000, 25.5860227203846 ) );
#362 = FILL_AREA_STYLE( '', ( #409 ) );
#363 = FILL_AREA_STYLE_COLOUR( '', #410 );
#364 = VERTEX_POINT( '', #411 );
#365 = CIRCLE( '', #412, 10.9864467548649 );
#366 = FILL_AREA_STYLE_COLOUR( '', #413 );
#367 = VERTEX_POINT( '', #414 );
#368 = CIRCLE( '', #415, 10.9393642930839 );
#369 = VERTEX_POINT( '', #416 );
#370 = CIRCLE( '', #417, 8.04645983793606 );
#371 = FILL_AREA_STYLE_COLOUR( '', #418 );
#372 = VERTEX_POINT( '', #419 );
#373 = CIRCLE( '', #420, 3.32350000000000 );
#374 = VERTEX_POINT( '', #421 );
#375 = CIRCLE( '', #422, 3.32350000000000 );
#376 = FILL_AREA_STYLE_COLOUR( '', #423 );
#377 = VERTEX_POINT( '', #424 );
#378 = CIRCLE( '', #425, 3.00000000000000 );
#379 = FILL_AREA_STYLE_COLOUR( '', #426 );
#380 = VERTEX_POINT( '', #427 );
#381 = CIRCLE( '', #428, 4.00000000000000 );
#382 = VERTEX_POINT( '', #429 );
#383 = CIRCLE( '', #430, 3.00000000000000 );
#384 = FILL_AREA_STYLE_COLOUR( '', #431 );
#385 = VERTEX_POINT( '', #432 );
#386 = CIRCLE( '', #433, 3.25000000000000 );
#387 = VERTEX_POINT( '', #434 );
#388 = CIRCLE( '', #435, 3.25000000000000 );
#389 = FILL_AREA_STYLE_COLOUR( '', #436 );
#390 = FILL_AREA_STYLE_COLOUR( '', #437 );
#391 = VERTEX_POINT( '', #438 );
#392 = CIRCLE( '', #439, 4.00000000000000 );
#393 = FILL_AREA_STYLE_COLOUR( '', #440 );
#394 = VERTEX_POINT( '', #441 );
#395 = CIRCLE( '', #442, 7.54912138127511 );
#396 = FILL_AREA_STYLE_COLOUR( '', #443 );
#397 = VERTEX_POINT( '', #444 );
#398 = CIRCLE( '', #445, 4.25000000000000 );
#399 = VERTEX_POINT( '', #446 );
#400 = CIRCLE( '', #447, 5.00000000000000 );
#401 = FILL_AREA_STYLE_COLOUR( '', #448 );
#402 = VERTEX_POINT( '', #449 );
#403 = CIRCLE( '', #450, 5.00000000000000 );
#404 = FILL_AREA_STYLE_COLOUR( '', #451 );
#405 = FILL_AREA_STYLE_COLOUR( '', #452 );
#406 = FILL_AREA_STYLE_COLOUR( '', #453 );
#407 = FILL_AREA_STYLE_COLOUR( '', #454 );
#408 = FILL_AREA_STYLE_COLOUR( '', #455 );
#409 = FILL_AREA_STYLE_COLOUR( '', #456 );
#410 = COLOUR_RGB( '', 0.200000002980232, 0.200000002980232, 0.200000002980232 );
#411 = CARTESIAN_POINT( '', ( 10.9864467548649, 0.000000000000000, 29.5458824988200 ) );
#412 = AXIS2_PLACEMENT_3D( '', #457, #458, #459 );
#413 = COLOUR_RGB( '', 0.200000002980232, 0.200000002980232, 0.200000002980232 );
#414 = CARTESIAN_POINT( '', ( 10.9393642930839, 0.000000000000000, 28.3737934256141 ) );
#415 = AXIS2_PLACEMENT_3D( '', #460, #461, #462 );
#416 = CARTESIAN_POINT( '', ( 8.04645983793606, 0.000000000000000, 0.448478552756121 ) );
#417 = AXIS2_PLACEMENT_3D( '', #463, #464, #465 );
#418 = COLOUR_RGB( '', 0.752941191196442, 0.752941191196442, 0.752941191196442 );
#419 = CARTESIAN_POINT( '', ( -7.45831928358535E-015, 3.32350000000000, 16.6765000000000 ) );
#420 = AXIS2_PLACEMENT_3D( '', #466, #467, #468 );
#421 = CARTESIAN_POINT( '', ( 0.000000000000000, -3.32350000000000, 25.0000000000000 ) );
#422 = AXIS2_PLACEMENT_3D( '', #469, #470, #471 );
#423 = COLOUR_RGB( '', 0.666666686534882, 0.733333349227905, 0.866666674613953 );
#424 = CARTESIAN_POINT( '', ( -7.29488743502159E-015, -3.00000000000000, 17.0000000000000 ) );
#425 = AXIS2_PLACEMENT_3D( '', #472, #473, #474 );
#426 = COLOUR_RGB( '', 0.666666686534882, 0.733333349227905, 0.866666674613953 );
#427 = CARTESIAN_POINT( '', ( -6.69593743060851E-015, 4.00000000000001, -86.0000000000000 ) );
#428 = AXIS2_PLACEMENT_3D( '', #475, #476, #477 );
#429 = CARTESIAN_POINT( '', ( -6.63083862827986E-015, 3.00000000000001, -87.0000000000000 ) );
#430 = AXIS2_PLACEMENT_3D( '', #478, #479, #480 );
#431 = COLOUR_RGB( '', 0.666666686534882, 0.733333349227905, 0.866666674613953 );
#432 = CARTESIAN_POINT( '', ( -6.38905364731583E-015, -3.24999999999999, -76.0317541634481 ) );
#433 = AXIS2_PLACEMENT_3D( '', #481, #482, #483 );
#434 = CARTESIAN_POINT( '', ( -6.75018057815904E-015, 3.25000000000001, -76.0000000000000 ) );
#435 = AXIS2_PLACEMENT_3D( '', #484, #485, #486 );
#436 = COLOUR_RGB( '', 0.666666686534882, 0.733333349227905, 0.866666674613953 );
#437 = COLOUR_RGB( '', 0.666666686534882, 0.733333349227905, 0.866666674613953 );
#438 = CARTESIAN_POINT( '', ( -6.33813708063502E-015, -3.99999999999999, -77.0000000000000 ) );
#439 = AXIS2_PLACEMENT_3D( '', #487, #488, #489 );
#440 = COLOUR_RGB( '', 0.200000002980232, 0.200000002980232, 0.200000002980232 );
#441 = CARTESIAN_POINT( '', ( 7.54912138127511, 0.000000000000000, 6.93889390390723E-015 ) );
#442 = AXIS2_PLACEMENT_3D( '', #490, #491, #492 );
#443 = COLOUR_RGB( '', 0.666666686534882, 0.733333349227905, 0.866666674613953 );
#444 = CARTESIAN_POINT( '', ( -6.81527938048770E-015, 4.25000000000001, -75.0000000000000 ) );
#445 = AXIS2_PLACEMENT_3D( '', #493, #494, #495 );
#446 = CARTESIAN_POINT( '', ( -6.30180123159856E-015, -4.99999999999999, -75.0000000000000 ) );
#447 = AXIS2_PLACEMENT_3D( '', #496, #497, #498 );
#448 = COLOUR_RGB( '', 0.666666686534882, 0.733333349227905, 0.866666674613953 );
#449 = CARTESIAN_POINT( '', ( 4.99999999999999, -1.28128199774768E-015, 1.38777878078145E-014 ) );
#450 = AXIS2_PLACEMENT_3D( '', #499, #500, #501 );
#451 = COLOUR_RGB( '', 0.752941191196442, 0.752941191196442, 0.752941191196442 );
#452 = COLOUR_RGB( '', 0.666666686534882, 0.733333349227905, 0.866666674613953 );
#453 = COLOUR_RGB( '', 0.200000002980232, 0.200000002980232, 0.200000002980232 );
#454 = COLOUR_RGB( '', 0.200000002980232, 0.200000002980232, 0.200000002980232 );
#455 = COLOUR_RGB( '', 0.200000002980232, 0.200000002980232, 0.200000002980232 );
#456 = COLOUR_RGB( '', 0.666666686534882, 0.733333349227905, 0.866666674613953 );
#457 = CARTESIAN_POINT( '', ( 0.000000000000000, 0.000000000000000, 29.5458824988200 ) );
#458 = DIRECTION( '', ( 0.000000000000000, 0.000000000000000, 1.00000000000000 ) );
#459 = DIRECTION( '', ( 1.00000000000000, 0.000000000000000, 0.000000000000000 ) );
#460 = CARTESIAN_POINT( '', ( 0.000000000000000, 0.000000000000000, 28.3737934256141 ) );
#461 = DIRECTION( '', ( 0.000000000000000, 0.000000000000000, 1.00000000000000 ) );
#462 = DIRECTION( '', ( 1.00000000000000, 0.000000000000000, 0.000000000000000 ) );
#463 = CARTESIAN_POINT( '', ( 0.000000000000000, 0.000000000000000, 0.448478552756121 ) );
#464 = DIRECTION( '', ( 0.000000000000000, 0.000000000000000, 1.00000000000000 ) );
#465 = DIRECTION( '', ( 1.00000000000000, 0.000000000000000, 0.000000000000000 ) );
#466 = CARTESIAN_POINT( '', ( -7.45831928358535E-015, -4.08360009533093E-015, 16.6765000000000 ) );
#467 = DIRECTION( '', ( 9.58765109739683E-018, 1.68039942289046E-016, -1.00000000000000 ) );
#468 = DIRECTION( '', ( 0.000000000000000, 1.00000000000000, 1.68039942289046E-016 ) );
#469 = CARTESIAN_POINT( '', ( 0.000000000000000, 0.000000000000000, 25.0000000000000 ) );
#470 = DIRECTION( '', ( 0.000000000000000, 0.000000000000000, 1.00000000000000 ) );
#471 = DIRECTION( '', ( 0.000000000000000, -1.00000000000000, 0.000000000000000 ) );
#472 = CARTESIAN_POINT( '', ( -7.46142088871536E-015, -4.13796101666144E-015, 17.0000000000000 ) );
#473 = DIRECTION( '', ( 9.58765109739683E-018, 1.68039942289044E-016, -1.00000000000000 ) );
#474 = DIRECTION( '', ( 5.55111512312578E-017, -1.00000000000000, -1.68039942289044E-016 ) );
#475 = CARTESIAN_POINT( '', ( -6.47389282568348E-015, 1.31701530391101E-014, -86.0000000000000 ) );
#476 = DIRECTION( '', ( -9.58765109739683E-018, -1.68039942289044E-016, 1.00000000000000 ) );
#477 = DIRECTION( '', ( -5.55111512312578E-017, 1.00000000000000, 1.68039942289044E-016 ) );
#478 = CARTESIAN_POINT( '', ( -6.46430517458609E-015, 1.33381929813992E-014, -87.0000000000000 ) );
#479 = DIRECTION( '', ( -9.58765109739683E-018, -1.68039942289044E-016, 1.00000000000000 ) );
#480 = DIRECTION( '', ( -5.55111512312578E-017, 1.00000000000000, 1.68039942289044E-016 ) );
#481 = CARTESIAN_POINT( '', ( -6.56946488881742E-015, 1.14950895840130E-014, -76.0317541634481 ) );
#482 = DIRECTION( '', ( 9.58765109739683E-018, 1.68039942289044E-016, -1.00000000000000 ) );
#483 = DIRECTION( '', ( 5.55111512312578E-017, -1.00000000000000, -1.68039942289044E-016 ) );
#484 = CARTESIAN_POINT( '', ( -6.56976933665745E-015, 1.14897536162197E-014, -76.0000000000000 ) );
#485 = DIRECTION( '', ( -9.58765109739683E-018, -1.68039942289044E-016, 1.00000000000000 ) );
#486 = DIRECTION( '', ( -5.55111512312578E-017, 1.00000000000000, 1.68039942289044E-016 ) );
#487 = CARTESIAN_POINT( '', ( -6.56018168556005E-015, 1.16577935585087E-014, -77.0000000000000 ) );
#488 = DIRECTION( '', ( 9.58765109739683E-018, 1.68039942289044E-016, -1.00000000000000 ) );
#489 = DIRECTION( '', ( 5.55111512312578E-017, -1.00000000000000, -1.68039942289044E-016 ) );
#490 = CARTESIAN_POINT( '', ( 0.000000000000000, 0.000000000000000, 6.93889390390723E-015 ) );
#491 = DIRECTION( '', ( 0.000000000000000, 0.000000000000000, 1.00000000000000 ) );
#492 = DIRECTION( '', ( 1.00000000000000, 0.000000000000000, 0.000000000000000 ) );
#493 = CARTESIAN_POINT( '', ( -6.57935698775485E-015, 1.13217136739306E-014, -75.0000000000000 ) );
#494 = DIRECTION( '', ( -9.58765109739683E-018, -1.68039942289045E-016, 1.00000000000000 ) );
#495 = DIRECTION( '', ( -5.55111512312578E-017, 1.00000000000000, 1.68039942289044E-016 ) );
#496 = CARTESIAN_POINT( '', ( -6.57935698775485E-015, 1.13217136739306E-014, -75.0000000000000 ) );
#497 = DIRECTION( '', ( 9.58765109739683E-018, 1.68039942289045E-016, -1.00000000000000 ) );
#498 = DIRECTION( '', ( 5.55111512312578E-017, -1.00000000000000, -1.68039942289045E-016 ) );
#499 = CARTESIAN_POINT( '', ( -7.29843082005961E-015, -1.28128199774768E-015, 1.38777878078145E-014 ) );
#500 = DIRECTION( '', ( 0.000000000000000, 0.000000000000000, 1.00000000000000 ) );
#501 = DIRECTION( '', ( 1.00000000000000, 0.000000000000000, 0.000000000000000 ) );
ENDSEC;
END-ISO-10303-21;
