ISO-10303-21;
HEADER;
FILE_DESCRIPTION( ( 'Unknown' ), '1' );
FILE_NAME( '//SBS2003/HD_Usb/Disegni/10_GAMM_CD/2- Gamm_STEP/03 - MANOPOLE/03_16.2-BI/6135105_BI22_M08x85.stp', 'Unknown', ( 'Unknown' ), ( 'Unknown' ), 'PSStep 11.0', 'Unknown', '  ' );
FILE_SCHEMA( ( 'AUTOMOTIVE_DESIGN { 1 0 10303 214 1 1 1 1 }' ) );
ENDSEC;
DATA;
#1 = MECHANICAL_DESIGN_GEOMETRIC_PRESENTATION_REPRESENTATION( ' ', ( #10, #11, #12, #13, #14, #15, #16, #17, #18, #19, #20, #21, #22, #23, #24, #25, #26 ), #6 );
#2 = PRODUCT_DEFINITION_CONTEXT( '', #27, 'design' );
#3 = APPLICATION_PROTOCOL_DEFINITION( 'INTERNATIONAL STANDARD', 'automotive_design', 2001, #27 );
#4 = PRODUCT_CATEGORY_RELATIONSHIP( 'NONE', 'NONE', #28, #29 );
#5 = SHAPE_DEFINITION_REPRESENTATION( #30, #31 );
#6 =  ( GEOMETRIC_REPRESENTATION_CONTEXT( 3 )GLOBAL_UNCERTAINTY_ASSIGNED_CONTEXT( ( #34 ) )GLOBAL_UNIT_ASSIGNED_CONTEXT( ( #36, #37, #38 ) )REPRESENTATION_CONTEXT( 'NONE', 'WORKSPACE' ) );
#10 = STYLED_ITEM( '', ( #40 ), #41 );
#11 = STYLED_ITEM( '', ( #42 ), #43 );
#12 = STYLED_ITEM( '', ( #44 ), #45 );
#13 = STYLED_ITEM( '', ( #46 ), #47 );
#14 = STYLED_ITEM( '', ( #48 ), #49 );
#15 = STYLED_ITEM( '', ( #50 ), #51 );
#16 = STYLED_ITEM( '', ( #52 ), #53 );
#17 = STYLED_ITEM( '', ( #54 ), #55 );
#18 = STYLED_ITEM( '', ( #56 ), #57 );
#19 = STYLED_ITEM( '', ( #58 ), #59 );
#20 = STYLED_ITEM( '', ( #60 ), #61 );
#21 = STYLED_ITEM( '', ( #62 ), #63 );
#22 = STYLED_ITEM( '', ( #64 ), #65 );
#23 = STYLED_ITEM( '', ( #66 ), #67 );
#24 = STYLED_ITEM( '', ( #68 ), #69 );
#25 = STYLED_ITEM( '', ( #70 ), #71 );
#26 = STYLED_ITEM( '', ( #72 ), #73 );
#27 = APPLICATION_CONTEXT( 'core data for automotive mechanical design processes' );
#28 = PRODUCT_CATEGORY( 'part', 'NONE' );
#29 = PRODUCT_RELATED_PRODUCT_CATEGORY( 'detail', ' ', ( #74 ) );
#30 = PRODUCT_DEFINITION_SHAPE( 'NONE', 'NONE', #75 );
#31 = ADVANCED_BREP_SHAPE_REPRESENTATION( '6140003_MCC22x40', ( #76, #77 ), #6 );
#34 = UNCERTAINTY_MEASURE_WITH_UNIT( LENGTH_MEASURE( 0.00100000000000000 ), #36, '', '' );
#36 =  ( CONVERSION_BASED_UNIT( 'MILLIMETRE', #80 )LENGTH_UNIT(  )NAMED_UNIT( #83 ) );
#37 =  ( NAMED_UNIT( #85 )PLANE_ANGLE_UNIT(  )SI_UNIT( $, .RADIAN. ) );
#38 =  ( NAMED_UNIT( #85 )SI_UNIT( $, .STERADIAN. )SOLID_ANGLE_UNIT(  ) );
#40 = PRESENTATION_STYLE_ASSIGNMENT( ( #91 ) );
#41 = ADVANCED_FACE( '', ( #92, #93 ), #94, .T. );
#42 = PRESENTATION_STYLE_ASSIGNMENT( ( #95 ) );
#43 = ADVANCED_FACE( '', ( #96, #97 ), #98, .T. );
#44 = PRESENTATION_STYLE_ASSIGNMENT( ( #99 ) );
#45 = ADVANCED_FACE( '', ( #100, #101 ), #102, .F. );
#46 = PRESENTATION_STYLE_ASSIGNMENT( ( #103 ) );
#47 = ADVANCED_FACE( '', ( #104, #105 ), #106, .F. );
#48 = PRESENTATION_STYLE_ASSIGNMENT( ( #107 ) );
#49 = ADVANCED_FACE( '', ( #108, #109 ), #110, .F. );
#50 = PRESENTATION_STYLE_ASSIGNMENT( ( #111 ) );
#51 = ADVANCED_FACE( '', ( #112 ), #113, .T. );
#52 = PRESENTATION_STYLE_ASSIGNMENT( ( #114 ) );
#53 = ADVANCED_FACE( '', ( #115, #116 ), #117, .T. );
#54 = PRESENTATION_STYLE_ASSIGNMENT( ( #118 ) );
#55 = ADVANCED_FACE( '', ( #119, #120 ), #121, .F. );
#56 = PRESENTATION_STYLE_ASSIGNMENT( ( #122 ) );
#57 = ADVANCED_FACE( '', ( #123 ), #124, .F. );
#58 = PRESENTATION_STYLE_ASSIGNMENT( ( #125 ) );
#59 = ADVANCED_FACE( '', ( #126, #127 ), #128, .T. );
#60 = PRESENTATION_STYLE_ASSIGNMENT( ( #129 ) );
#61 = ADVANCED_FACE( '', ( #130, #131 ), #132, .T. );
#62 = PRESENTATION_STYLE_ASSIGNMENT( ( #133 ) );
#63 = ADVANCED_FACE( '', ( #134, #135 ), #136, .F. );
#64 = PRESENTATION_STYLE_ASSIGNMENT( ( #137 ) );
#65 = ADVANCED_FACE( '', ( #138, #139 ), #140, .F. );
#66 = PRESENTATION_STYLE_ASSIGNMENT( ( #141 ) );
#67 = ADVANCED_FACE( '', ( #142, #143 ), #144, .T. );
#68 = PRESENTATION_STYLE_ASSIGNMENT( ( #145 ) );
#69 = ADVANCED_FACE( '', ( #146, #147 ), #148, .F. );
#70 = PRESENTATION_STYLE_ASSIGNMENT( ( #149 ) );
#71 = ADVANCED_FACE( '', ( #150 ), #151, .F. );
#72 = PRESENTATION_STYLE_ASSIGNMENT( ( #152 ) );
#73 = ADVANCED_FACE( '', ( #153, #154 ), #155, .T. );
#74 = PRODUCT( '6140003_MCC22x40', '6140003_MCC22x40', 'PART-6140003_MCC22x40-DESC', ( #156 ) );
#75 = PRODUCT_DEFINITION( 'NONE', 'NONE', #157, #2 );
#76 = BREP_WITH_VOIDS( '6140003_MCC22x40', #158, ( #159 ) );
#77 = AXIS2_PLACEMENT_3D( '', #160, #161, #162 );
#80 = LENGTH_MEASURE_WITH_UNIT( LENGTH_MEASURE( 1.00000000000000 ), #163 );
#83 = DIMENSIONAL_EXPONENTS( 1.00000000000000, 0.000000000000000, 0.000000000000000, 0.000000000000000, 0.000000000000000, 0.000000000000000, 0.000000000000000 );
#85 = DIMENSIONAL_EXPONENTS( 0.000000000000000, 0.000000000000000, 0.000000000000000, 0.000000000000000, 0.000000000000000, 0.000000000000000, 0.000000000000000 );
#91 = SURFACE_STYLE_USAGE( .BOTH., #164 );
#92 = FACE_BOUND( '', #165, .T. );
#93 = FACE_OUTER_BOUND( '', #166, .T. );
#94 = CONICAL_SURFACE( '', #167, 4.00000000000000, 0.785398163397448 );
#95 = SURFACE_STYLE_USAGE( .BOTH., #168 );
#96 = FACE_OUTER_BOUND( '', #169, .T. );
#97 = FACE_OUTER_BOUND( '', #170, .T. );
#98 = CYLINDRICAL_SURFACE( '', #171, 4.00000000000000 );
#99 = SURFACE_STYLE_USAGE( .BOTH., #172 );
#100 = FACE_OUTER_BOUND( '', #173, .T. );
#101 = FACE_BOUND( '', #174, .T. );
#102 = PLANE( '', #175 );
#103 = SURFACE_STYLE_USAGE( .BOTH., #176 );
#104 = FACE_OUTER_BOUND( '', #177, .T. );
#105 = FACE_OUTER_BOUND( '', #178, .T. );
#106 = CYLINDRICAL_SURFACE( '', #179, 3.32350000000000 );
#107 = SURFACE_STYLE_USAGE( .BOTH., #180 );
#108 = FACE_OUTER_BOUND( '', #181, .T. );
#109 = FACE_OUTER_BOUND( '', #182, .T. );
#110 = TOROIDAL_SURFACE( '', #183, 4.25000000000000, 1.00000000000000 );
#111 = SURFACE_STYLE_USAGE( .BOTH., #184 );
#112 = FACE_OUTER_BOUND( '', #185, .T. );
#113 = SPHERICAL_SURFACE( '', #186, 11.0000000000000 );
#114 = SURFACE_STYLE_USAGE( .BOTH., #187 );
#115 = FACE_OUTER_BOUND( '', #188, .T. );
#116 = FACE_OUTER_BOUND( '', #189, .T. );
#117 = CYLINDRICAL_SURFACE( '', #190, 5.00000000000000 );
#118 = SURFACE_STYLE_USAGE( .BOTH., #191 );
#119 = FACE_OUTER_BOUND( '', #192, .T. );
#120 = FACE_OUTER_BOUND( '', #193, .T. );
#121 = TOROIDAL_SURFACE( '', #194, 10.9999211526918, 0.587685933211269 );
#122 = SURFACE_STYLE_USAGE( .BOTH., #195 );
#123 = FACE_OUTER_BOUND( '', #196, .T. );
#124 = PLANE( '', #197 );
#125 = SURFACE_STYLE_USAGE( .BOTH., #198 );
#126 = FACE_OUTER_BOUND( '', #199, .T. );
#127 = FACE_BOUND( '', #200, .T. );
#128 = CONICAL_SURFACE( '', #201, 8.04645983793606, 0.103226120097149 );
#129 = SURFACE_STYLE_USAGE( .BOTH., #202 );
#130 = FACE_OUTER_BOUND( '', #203, .T. );
#131 = FACE_BOUND( '', #204, .T. );
#132 = CONICAL_SURFACE( '', #205, 3.00000000000000, 0.785398163397448 );
#133 = SURFACE_STYLE_USAGE( .BOTH., #206 );
#134 = FACE_BOUND( '', #207, .T. );
#135 = FACE_OUTER_BOUND( '', #208, .T. );
#136 = PLANE( '', #209 );
#137 = SURFACE_STYLE_USAGE( .BOTH., #210 );
#138 = FACE_OUTER_BOUND( '', #211, .T. );
#139 = FACE_BOUND( '', #212, .T. );
#140 = CONICAL_SURFACE( '', #213, 3.32350000000000, 1.39626340159546 );
#141 = SURFACE_STYLE_USAGE( .BOTH., #214 );
#142 = FACE_OUTER_BOUND( '', #215, .T. );
#143 = FACE_OUTER_BOUND( '', #216, .T. );
#144 = CYLINDRICAL_SURFACE( '', #217, 3.25000000000000 );
#145 = SURFACE_STYLE_USAGE( .BOTH., #218 );
#146 = FACE_OUTER_BOUND( '', #219, .T. );
#147 = FACE_OUTER_BOUND( '', #220, .T. );
#148 = TOROIDAL_SURFACE( '', #221, 4.25000000000000, 1.00000000000000 );
#149 = SURFACE_STYLE_USAGE( .BOTH., #222 );
#150 = FACE_OUTER_BOUND( '', #223, .T. );
#151 = PLANE( '', #224 );
#152 = SURFACE_STYLE_USAGE( .BOTH., #225 );
#153 = FACE_OUTER_BOUND( '', #226, .T. );
#154 = FACE_OUTER_BOUND( '', #227, .T. );
#155 = TOROIDAL_SURFACE( '', #228, 7.54912138127511, 0.500000000000000 );
#156 = PRODUCT_CONTEXT( '', #27, 'mechanical' );
#157 = PRODUCT_DEFINITION_FORMATION_WITH_SPECIFIED_SOURCE( ' ', 'NONE', #74, .NOT_KNOWN. );
#158 = CLOSED_SHELL( '', ( #45, #73, #69, #51, #53, #55, #59, #63, #67, #61, #49, #71, #43 ) );
#159 = ORIENTED_CLOSED_SHELL( '', *, #229, .T. );
#160 = CARTESIAN_POINT( '', ( 0.000000000000000, 0.000000000000000, 0.000000000000000 ) );
#161 = DIRECTION( '', ( 0.000000000000000, 0.000000000000000, 1.00000000000000 ) );
#162 = DIRECTION( '', ( 1.00000000000000, 0.000000000000000, 0.000000000000000 ) );
#163 =  ( LENGTH_UNIT(  )NAMED_UNIT( #83 )SI_UNIT( .MILLI., .METRE. ) );
#164 = SURFACE_SIDE_STYLE( '', ( #231 ) );
#165 = EDGE_LOOP( '', ( #232 ) );
#166 = EDGE_LOOP( '', ( #233 ) );
#167 = AXIS2_PLACEMENT_3D( '', #234, #235, #236 );
#168 = SURFACE_SIDE_STYLE( '', ( #237 ) );
#169 = EDGE_LOOP( '', ( #238 ) );
#170 = EDGE_LOOP( '', ( #239 ) );
#171 = AXIS2_PLACEMENT_3D( '', #240, #241, #242 );
#172 = SURFACE_SIDE_STYLE( '', ( #243 ) );
#173 = EDGE_LOOP( '', ( #244 ) );
#174 = EDGE_LOOP( '', ( #245 ) );
#175 = AXIS2_PLACEMENT_3D( '', #246, #247, #248 );
#176 = SURFACE_SIDE_STYLE( '', ( #249 ) );
#177 = EDGE_LOOP( '', ( #250 ) );
#178 = EDGE_LOOP( '', ( #251 ) );
#179 = AXIS2_PLACEMENT_3D( '', #252, #253, #254 );
#180 = SURFACE_SIDE_STYLE( '', ( #255 ) );
#181 = EDGE_LOOP( '', ( #256 ) );
#182 = EDGE_LOOP( '', ( #257 ) );
#183 = AXIS2_PLACEMENT_3D( '', #258, #259, #260 );
#184 = SURFACE_SIDE_STYLE( '', ( #261 ) );
#185 = EDGE_LOOP( '', ( #262 ) );
#186 = AXIS2_PLACEMENT_3D( '', #263, #264, #265 );
#187 = SURFACE_SIDE_STYLE( '', ( #266 ) );
#188 = EDGE_LOOP( '', ( #267 ) );
#189 = EDGE_LOOP( '', ( #268 ) );
#190 = AXIS2_PLACEMENT_3D( '', #269, #270, #271 );
#191 = SURFACE_SIDE_STYLE( '', ( #272 ) );
#192 = EDGE_LOOP( '', ( #273 ) );
#193 = EDGE_LOOP( '', ( #274 ) );
#194 = AXIS2_PLACEMENT_3D( '', #275, #276, #277 );
#195 = SURFACE_SIDE_STYLE( '', ( #278 ) );
#196 = EDGE_LOOP( '', ( #279 ) );
#197 = AXIS2_PLACEMENT_3D( '', #280, #281, #282 );
#198 = SURFACE_SIDE_STYLE( '', ( #283 ) );
#199 = EDGE_LOOP( '', ( #284 ) );
#200 = EDGE_LOOP( '', ( #285 ) );
#201 = AXIS2_PLACEMENT_3D( '', #286, #287, #288 );
#202 = SURFACE_SIDE_STYLE( '', ( #289 ) );
#203 = EDGE_LOOP( '', ( #290 ) );
#204 = EDGE_LOOP( '', ( #291 ) );
#205 = AXIS2_PLACEMENT_3D( '', #292, #293, #294 );
#206 = SURFACE_SIDE_STYLE( '', ( #295 ) );
#207 = EDGE_LOOP( '', ( #296 ) );
#208 = EDGE_LOOP( '', ( #297 ) );
#209 = AXIS2_PLACEMENT_3D( '', #298, #299, #300 );
#210 = SURFACE_SIDE_STYLE( '', ( #301 ) );
#211 = EDGE_LOOP( '', ( #302 ) );
#212 = VERTEX_LOOP( '', #303 );
#213 = AXIS2_PLACEMENT_3D( '', #304, #305, #306 );
#214 = SURFACE_SIDE_STYLE( '', ( #307 ) );
#215 = EDGE_LOOP( '', ( #308 ) );
#216 = EDGE_LOOP( '', ( #309 ) );
#217 = AXIS2_PLACEMENT_3D( '', #310, #311, #312 );
#218 = SURFACE_SIDE_STYLE( '', ( #313 ) );
#219 = EDGE_LOOP( '', ( #314 ) );
#220 = EDGE_LOOP( '', ( #315 ) );
#221 = AXIS2_PLACEMENT_3D( '', #316, #317, #318 );
#222 = SURFACE_SIDE_STYLE( '', ( #319 ) );
#223 = EDGE_LOOP( '', ( #320 ) );
#224 = AXIS2_PLACEMENT_3D( '', #321, #322, #323 );
#225 = SURFACE_SIDE_STYLE( '', ( #324 ) );
#226 = EDGE_LOOP( '', ( #325 ) );
#227 = EDGE_LOOP( '', ( #326 ) );
#228 = AXIS2_PLACEMENT_3D( '', #327, #328, #329 );
#229 = CLOSED_SHELL( '', ( #65, #47, #57, #41 ) );
#231 = SURFACE_STYLE_FILL_AREA( #330 );
#232 = ORIENTED_EDGE( '', *, *, #331, .F. );
#233 = ORIENTED_EDGE( '', *, *, #332, .F. );
#234 = CARTESIAN_POINT( '', ( -1.53402417558350E-016, -1.13787019048685E-015, 16.0000000000000 ) );
#235 = DIRECTION( '', ( 9.58765109739683E-018, 1.68039942289044E-016, -1.00000000000000 ) );
#236 = DIRECTION( '', ( 5.55111512312578E-017, -1.00000000000000, -1.68039942289044E-016 ) );
#237 = SURFACE_STYLE_FILL_AREA( #333 );
#238 = ORIENTED_EDGE( '', *, *, #334, .T. );
#239 = ORIENTED_EDGE( '', *, *, #335, .T. );
#240 = CARTESIAN_POINT( '', ( 4.50619601577651E-016, 9.44864617372295E-015, -47.0000000000000 ) );
#241 = DIRECTION( '', ( -9.58765109739683E-018, -1.68039942289044E-016, 1.00000000000000 ) );
#242 = DIRECTION( '', ( 5.55111512312578E-017, -1.00000000000000, -1.68039942289044E-016 ) );
#243 = SURFACE_STYLE_FILL_AREA( #336 );
#244 = ORIENTED_EDGE( '', *, *, #337, .F. );
#245 = ORIENTED_EDGE( '', *, *, #338, .F. );
#246 = CARTESIAN_POINT( '', ( 4.62235100464293E-016, 7.54912138127511, 1.25776544028220E-014 ) );
#247 = DIRECTION( '', ( 0.000000000000000, 0.000000000000000, 1.00000000000000 ) );
#248 = DIRECTION( '', ( 1.00000000000000, 0.000000000000000, 0.000000000000000 ) );
#249 = SURFACE_STYLE_FILL_AREA( #339 );
#250 = ORIENTED_EDGE( '', *, *, #332, .T. );
#251 = ORIENTED_EDGE( '', *, *, #340, .T. );
#252 = CARTESIAN_POINT( '', ( 0.000000000000000, 0.000000000000000, 1.25776544028220E-014 ) );
#253 = DIRECTION( '', ( -0.000000000000000, 0.000000000000000, -1.00000000000000 ) );
#254 = DIRECTION( '', ( 0.000000000000000, 1.00000000000000, 0.000000000000000 ) );
#255 = SURFACE_STYLE_FILL_AREA( #341 );
#256 = ORIENTED_EDGE( '', *, *, #342, .F. );
#257 = ORIENTED_EDGE( '', *, *, #343, .F. );
#258 = CARTESIAN_POINT( '', ( 4.41031950480254E-016, 9.28060623143391E-015, -46.0000000000000 ) );
#259 = DIRECTION( '', ( -9.58765109739683E-018, -1.68039942289045E-016, 1.00000000000000 ) );
#260 = DIRECTION( '', ( -5.55111512312578E-017, 1.00000000000000, 1.68039942289044E-016 ) );
#261 = SURFACE_STYLE_FILL_AREA( #344 );
#262 = ORIENTED_EDGE( '', *, *, #345, .T. );
#263 = CARTESIAN_POINT( '', ( 1.06217669540302E-031, 1.73472347597680E-015, 29.0000000000000 ) );
#264 = DIRECTION( '', ( 0.000000000000000, 0.000000000000000, 1.00000000000000 ) );
#265 = DIRECTION( '', ( 6.12303176911189E-017, 1.00000000000000, 0.000000000000000 ) );
#266 = SURFACE_STYLE_FILL_AREA( #346 );
#267 = ORIENTED_EDGE( '', *, *, #347, .F. );
#268 = ORIENTED_EDGE( '', *, *, #338, .T. );
#269 = CARTESIAN_POINT( '', ( 4.50619601577651E-016, 9.44864617372295E-015, -47.0000000000000 ) );
#270 = DIRECTION( '', ( -9.58765109739683E-018, -1.68039942289045E-016, 1.00000000000000 ) );
#271 = DIRECTION( '', ( 5.55111512312578E-017, -1.00000000000000, -1.68039942289045E-016 ) );
#272 = SURFACE_STYLE_FILL_AREA( #348 );
#273 = ORIENTED_EDGE( '', *, *, #345, .F. );
#274 = ORIENTED_EDGE( '', *, *, #349, .T. );
#275 = CARTESIAN_POINT( '', ( 0.000000000000000, 0.000000000000000, 28.9583510556634 ) );
#276 = DIRECTION( '', ( 0.000000000000000, 0.000000000000000, 1.00000000000000 ) );
#277 = DIRECTION( '', ( 1.00000000000000, 0.000000000000000, 0.000000000000000 ) );
#278 = SURFACE_STYLE_FILL_AREA( #350 );
#279 = ORIENTED_EDGE( '', *, *, #331, .T. );
#280 = CARTESIAN_POINT( '', ( -6.29955944345254E-016, 4.00000000000000, 17.0000000000000 ) );
#281 = DIRECTION( '', ( 9.58765109739683E-018, 1.68039942289044E-016, -1.00000000000000 ) );
#282 = DIRECTION( '', ( 5.55111512312578E-017, -1.00000000000000, -1.68039942289044E-016 ) );
#283 = SURFACE_STYLE_FILL_AREA( #351 );
#284 = ORIENTED_EDGE( '', *, *, #349, .F. );
#285 = ORIENTED_EDGE( '', *, *, #352, .T. );
#286 = CARTESIAN_POINT( '', ( 0.000000000000000, 0.000000000000000, 0.448478552756121 ) );
#287 = DIRECTION( '', ( -0.000000000000000, -0.000000000000000, 1.00000000000000 ) );
#288 = DIRECTION( '', ( 1.00000000000000, 0.000000000000000, 0.000000000000000 ) );
#289 = SURFACE_STYLE_FILL_AREA( #353 );
#290 = ORIENTED_EDGE( '', *, *, #334, .F. );
#291 = ORIENTED_EDGE( '', *, *, #354, .F. );
#292 = CARTESIAN_POINT( '', ( 5.46496112551619E-016, 1.11290455966134E-014, -57.0000000000000 ) );
#293 = DIRECTION( '', ( -9.58765109739683E-018, -1.68039942289045E-016, 1.00000000000000 ) );
#294 = DIRECTION( '', ( -5.55111512312578E-017, 1.00000000000000, 1.68039942289045E-016 ) );
#295 = SURFACE_STYLE_FILL_AREA( #355 );
#296 = ORIENTED_EDGE( '', *, *, #342, .T. );
#297 = ORIENTED_EDGE( '', *, *, #347, .T. );
#298 = CARTESIAN_POINT( '', ( -1.52263045229028E-016, 5.00000000000000, -45.0000000000000 ) );
#299 = DIRECTION( '', ( -9.58765109739683E-018, -1.68039942289044E-016, 1.00000000000000 ) );
#300 = DIRECTION( '', ( -5.55111512312578E-017, 1.00000000000000, 1.68039942289044E-016 ) );
#301 = SURFACE_STYLE_FILL_AREA( #356 );
#302 = ORIENTED_EDGE( '', *, *, #340, .F. );
#303 = VERTEX_POINT( '', #357 );
#304 = CARTESIAN_POINT( '', ( 0.000000000000000, 0.000000000000000, 25.0000000000000 ) );
#305 = DIRECTION( '', ( 0.000000000000000, -0.000000000000000, -1.00000000000000 ) );
#306 = DIRECTION( '', ( 0.000000000000000, -1.00000000000000, 0.000000000000000 ) );
#307 = SURFACE_STYLE_FILL_AREA( #358 );
#308 = ORIENTED_EDGE( '', *, *, #359, .T. );
#309 = ORIENTED_EDGE( '', *, *, #343, .T. );
#310 = CARTESIAN_POINT( '', ( 4.50619601577651E-016, 9.44864617372295E-015, -47.0000000000000 ) );
#311 = DIRECTION( '', ( -9.58765109739683E-018, -1.68039942289044E-016, 1.00000000000000 ) );
#312 = DIRECTION( '', ( 5.55111512312578E-017, -1.00000000000000, -1.68039942289044E-016 ) );
#313 = SURFACE_STYLE_FILL_AREA( #360 );
#314 = ORIENTED_EDGE( '', *, *, #359, .F. );
#315 = ORIENTED_EDGE( '', *, *, #335, .F. );
#316 = CARTESIAN_POINT( '', ( 4.41336398320284E-016, 9.28594219922717E-015, -46.0317541634482 ) );
#317 = DIRECTION( '', ( 9.58765109739683E-018, 1.68039942289045E-016, -1.00000000000000 ) );
#318 = DIRECTION( '', ( 5.55111512312578E-017, -1.00000000000000, -1.68039942289044E-016 ) );
#319 = SURFACE_STYLE_FILL_AREA( #361 );
#320 = ORIENTED_EDGE( '', *, *, #354, .T. );
#321 = CARTESIAN_POINT( '', ( 5.46496112551619E-016, 1.35545619001722E-014, -57.0000000000000 ) );
#322 = DIRECTION( '', ( -9.58765109739683E-018, -1.68039942289044E-016, 1.00000000000000 ) );
#323 = DIRECTION( '', ( -5.55111512312578E-017, 1.00000000000000, 1.68039942289044E-016 ) );
#324 = SURFACE_STYLE_FILL_AREA( #362 );
#325 = ORIENTED_EDGE( '', *, *, #352, .F. );
#326 = ORIENTED_EDGE( '', *, *, #337, .T. );
#327 = CARTESIAN_POINT( '', ( 0.000000000000000, 0.000000000000000, 0.500000000000007 ) );
#328 = DIRECTION( '', ( 0.000000000000000, 0.000000000000000, 1.00000000000000 ) );
#329 = DIRECTION( '', ( 1.00000000000000, 0.000000000000000, 0.000000000000000 ) );
#330 = FILL_AREA_STYLE( '', ( #363 ) );
#331 = EDGE_CURVE( '', #364, #364, #365, .F. );
#332 = EDGE_CURVE( '', #366, #366, #367, .T. );
#333 = FILL_AREA_STYLE( '', ( #368 ) );
#334 = EDGE_CURVE( '', #369, #369, #370, .T. );
#335 = EDGE_CURVE( '', #371, #371, #372, .T. );
#336 = FILL_AREA_STYLE( '', ( #373 ) );
#337 = EDGE_CURVE( '', #374, #374, #375, .T. );
#338 = EDGE_CURVE( '', #376, #376, #377, .F. );
#339 = FILL_AREA_STYLE( '', ( #378 ) );
#340 = EDGE_CURVE( '', #379, #379, #380, .T. );
#341 = FILL_AREA_STYLE( '', ( #381 ) );
#342 = EDGE_CURVE( '', #382, #382, #383, .T. );
#343 = EDGE_CURVE( '', #384, #384, #385, .F. );
#344 = FILL_AREA_STYLE( '', ( #386 ) );
#345 = EDGE_CURVE( '', #387, #387, #388, .T. );
#346 = FILL_AREA_STYLE( '', ( #389 ) );
#347 = EDGE_CURVE( '', #390, #390, #391, .T. );
#348 = FILL_AREA_STYLE( '', ( #392 ) );
#349 = EDGE_CURVE( '', #393, #393, #394, .T. );
#350 = FILL_AREA_STYLE( '', ( #395 ) );
#351 = FILL_AREA_STYLE( '', ( #396 ) );
#352 = EDGE_CURVE( '', #397, #397, #398, .T. );
#353 = FILL_AREA_STYLE( '', ( #399 ) );
#354 = EDGE_CURVE( '', #400, #400, #401, .F. );
#355 = FILL_AREA_STYLE( '', ( #402 ) );
#356 = FILL_AREA_STYLE( '', ( #403 ) );
#357 = CARTESIAN_POINT( '', ( 0.000000000000000, 0.000000000000000, 25.5860227203846 ) );
#358 = FILL_AREA_STYLE( '', ( #404 ) );
#359 = EDGE_CURVE( '', #405, #405, #406, .F. );
#360 = FILL_AREA_STYLE( '', ( #407 ) );
#361 = FILL_AREA_STYLE( '', ( #408 ) );
#362 = FILL_AREA_STYLE( '', ( #409 ) );
#363 = FILL_AREA_STYLE_COLOUR( '', #410 );
#364 = VERTEX_POINT( '', #411 );
#365 = CIRCLE( '', #412, 3.00000000000000 );
#366 = VERTEX_POINT( '', #413 );
#367 = CIRCLE( '', #414, 3.32350000000000 );
#368 = FILL_AREA_STYLE_COLOUR( '', #415 );
#369 = VERTEX_POINT( '', #416 );
#370 = CIRCLE( '', #417, 4.00000000000000 );
#371 = VERTEX_POINT( '', #418 );
#372 = CIRCLE( '', #419, 4.00000000000000 );
#373 = FILL_AREA_STYLE_COLOUR( '', #420 );
#374 = VERTEX_POINT( '', #421 );
#375 = CIRCLE( '', #422, 7.54912138127511 );
#376 = VERTEX_POINT( '', #423 );
#377 = CIRCLE( '', #424, 5.00000000000000 );
#378 = FILL_AREA_STYLE_COLOUR( '', #425 );
#379 = VERTEX_POINT( '', #426 );
#380 = CIRCLE( '', #427, 3.32350000000000 );
#381 = FILL_AREA_STYLE_COLOUR( '', #428 );
#382 = VERTEX_POINT( '', #429 );
#383 = CIRCLE( '', #430, 4.25000000000000 );
#384 = VERTEX_POINT( '', #431 );
#385 = CIRCLE( '', #432, 3.25000000000000 );
#386 = FILL_AREA_STYLE_COLOUR( '', #433 );
#387 = VERTEX_POINT( '', #434 );
#388 = CIRCLE( '', #435, 10.9864467548649 );
#389 = FILL_AREA_STYLE_COLOUR( '', #436 );
#390 = VERTEX_POINT( '', #437 );
#391 = CIRCLE( '', #438, 5.00000000000000 );
#392 = FILL_AREA_STYLE_COLOUR( '', #439 );
#393 = VERTEX_POINT( '', #440 );
#394 = CIRCLE( '', #441, 10.9393642930839 );
#395 = FILL_AREA_STYLE_COLOUR( '', #442 );
#396 = FILL_AREA_STYLE_COLOUR( '', #443 );
#397 = VERTEX_POINT( '', #444 );
#398 = CIRCLE( '', #445, 8.04645983793606 );
#399 = FILL_AREA_STYLE_COLOUR( '', #446 );
#400 = VERTEX_POINT( '', #447 );
#401 = CIRCLE( '', #448, 3.00000000000000 );
#402 = FILL_AREA_STYLE_COLOUR( '', #449 );
#403 = FILL_AREA_STYLE_COLOUR( '', #450 );
#404 = FILL_AREA_STYLE_COLOUR( '', #451 );
#405 = VERTEX_POINT( '', #452 );
#406 = CIRCLE( '', #453, 3.25000000000000 );
#407 = FILL_AREA_STYLE_COLOUR( '', #454 );
#408 = FILL_AREA_STYLE_COLOUR( '', #455 );
#409 = FILL_AREA_STYLE_COLOUR( '', #456 );
#410 = COLOUR_RGB( '', 0.666666686534882, 0.733333349227905, 0.866666674613953 );
#411 = CARTESIAN_POINT( '', ( 3.54338503802687E-018, -3.00000000000000, 17.0000000000000 ) );
#412 = AXIS2_PLACEMENT_3D( '', #457, #458, #459 );
#413 = CARTESIAN_POINT( '', ( -1.59888463525739E-016, 3.32350000000000, 16.6765000000000 ) );
#414 = AXIS2_PLACEMENT_3D( '', #460, #461, #462 );
#415 = COLOUR_RGB( '', 0.752941191196442, 0.752941191196442, 0.752941191196442 );
#416 = CARTESIAN_POINT( '', ( 3.14863856529192E-016, 4.00000000000001, -56.0000000000000 ) );
#417 = AXIS2_PLACEMENT_3D( '', #463, #464, #465 );
#418 = CARTESIAN_POINT( '', ( 6.72664206502682E-016, -3.99999999999999, -47.0000000000000 ) );
#419 = AXIS2_PLACEMENT_3D( '', #466, #467, #468 );
#420 = COLOUR_RGB( '', 0.200000002980232, 0.200000002980232, 0.200000002980232 );
#421 = CARTESIAN_POINT( '', ( 7.54912138127511, 0.000000000000000, 6.93889390390723E-015 ) );
#422 = AXIS2_PLACEMENT_3D( '', #469, #470, #471 );
#423 = CARTESIAN_POINT( '', ( 5.00000000000000, 1.55076888613786E-015, 1.38777878078145E-014 ) );
#424 = AXIS2_PLACEMENT_3D( '', #472, #473, #474 );
#425 = COLOUR_RGB( '', 0.752941191196442, 0.752941191196442, 0.752941191196442 );
#426 = CARTESIAN_POINT( '', ( 0.000000000000000, -3.32350000000000, 25.0000000000000 ) );
#427 = AXIS2_PLACEMENT_3D( '', #475, #476, #477 );
#428 = COLOUR_RGB( '', 0.666666686534882, 0.733333349227905, 0.866666674613953 );
#429 = CARTESIAN_POINT( '', ( 1.95521906650012E-016, 4.25000000000001, -45.0000000000000 ) );
#430 = AXIS2_PLACEMENT_3D( '', #478, #479, #480 );
#431 = CARTESIAN_POINT( '', ( 2.60620708978666E-016, 3.25000000000001, -46.0000000000000 ) );
#432 = AXIS2_PLACEMENT_3D( '', #481, #482, #483 );
#433 = COLOUR_RGB( '', 0.200000002980232, 0.200000002980232, 0.200000002980232 );
#434 = CARTESIAN_POINT( '', ( 10.9864467548649, 0.000000000000000, 29.5458824988200 ) );
#435 = AXIS2_PLACEMENT_3D( '', #484, #485, #486 );
#436 = COLOUR_RGB( '', 0.666666686534882, 0.733333349227905, 0.866666674613953 );
#437 = CARTESIAN_POINT( '', ( 7.09000055539146E-016, -4.99999999999999, -45.0000000000000 ) );
#438 = AXIS2_PLACEMENT_3D( '', #487, #488, #489 );
#439 = COLOUR_RGB( '', 0.200000002980232, 0.200000002980232, 0.200000002980232 );
#440 = CARTESIAN_POINT( '', ( 10.9393642930839, 0.000000000000000, 28.3737934256141 ) );
#441 = AXIS2_PLACEMENT_3D( '', #490, #491, #492 );
#442 = COLOUR_RGB( '', 0.666666686534882, 0.733333349227905, 0.866666674613953 );
#443 = COLOUR_RGB( '', 0.200000002980232, 0.200000002980232, 0.200000002980232 );
#444 = CARTESIAN_POINT( '', ( 8.04645983793606, 0.000000000000000, 0.448478552756121 ) );
#445 = AXIS2_PLACEMENT_3D( '', #493, #494, #495 );
#446 = COLOUR_RGB( '', 0.666666686534882, 0.733333349227905, 0.866666674613953 );
#447 = CARTESIAN_POINT( '', ( 3.79962658857846E-016, 3.00000000000001, -57.0000000000000 ) );
#448 = AXIS2_PLACEMENT_3D( '', #496, #497, #498 );
#449 = COLOUR_RGB( '', 0.666666686534882, 0.733333349227905, 0.866666674613953 );
#450 = COLOUR_RGB( '', 0.200000002980232, 0.200000002980232, 0.200000002980232 );
#451 = COLOUR_RGB( '', 0.666666686534882, 0.733333349227905, 0.866666674613953 );
#452 = CARTESIAN_POINT( '', ( 6.21747639821872E-016, -3.24999999999999, -46.0317541634482 ) );
#453 = AXIS2_PLACEMENT_3D( '', #499, #500, #501 );
#454 = COLOUR_RGB( '', 0.666666686534882, 0.733333349227905, 0.866666674613953 );
#455 = COLOUR_RGB( '', 0.666666686534882, 0.733333349227905, 0.866666674613953 );
#456 = COLOUR_RGB( '', 0.200000002980232, 0.200000002980232, 0.200000002980232 );
#457 = CARTESIAN_POINT( '', ( -1.62990068655747E-016, -1.30591013277589E-015, 17.0000000000000 ) );
#458 = DIRECTION( '', ( 9.58765109739683E-018, 1.68039942289044E-016, -1.00000000000000 ) );
#459 = DIRECTION( '', ( 5.55111512312578E-017, -1.00000000000000, -1.68039942289044E-016 ) );
#460 = CARTESIAN_POINT( '', ( -1.59888463525739E-016, -1.25154921144539E-015, 16.6765000000000 ) );
#461 = DIRECTION( '', ( 9.58765109739683E-018, 1.68039942289044E-016, -1.00000000000000 ) );
#462 = DIRECTION( '', ( 0.000000000000000, 1.00000000000000, 1.68039942289044E-016 ) );
#463 = CARTESIAN_POINT( '', ( 5.36908461454223E-016, 1.09610056543243E-014, -56.0000000000000 ) );
#464 = DIRECTION( '', ( -9.58765109739683E-018, -1.68039942289045E-016, 1.00000000000000 ) );
#465 = DIRECTION( '', ( -5.55111512312578E-017, 1.00000000000000, 1.68039942289045E-016 ) );
#466 = CARTESIAN_POINT( '', ( 4.50619601577651E-016, 9.44864617372295E-015, -47.0000000000000 ) );
#467 = DIRECTION( '', ( 9.58765109739683E-018, 1.68039942289044E-016, -1.00000000000000 ) );
#468 = DIRECTION( '', ( 5.55111512312578E-017, -1.00000000000000, -1.68039942289044E-016 ) );
#469 = CARTESIAN_POINT( '', ( 0.000000000000000, 0.000000000000000, 6.93889390390723E-015 ) );
#470 = DIRECTION( '', ( 0.000000000000000, 0.000000000000000, 1.00000000000000 ) );
#471 = DIRECTION( '', ( 1.00000000000000, 0.000000000000000, 0.000000000000000 ) );
#472 = CARTESIAN_POINT( '', ( -3.85185988877447E-031, 1.55076888613786E-015, 1.38777878078145E-014 ) );
#473 = DIRECTION( '', ( 0.000000000000000, 0.000000000000000, 1.00000000000000 ) );
#474 = DIRECTION( '', ( 1.00000000000000, 0.000000000000000, 0.000000000000000 ) );
#475 = CARTESIAN_POINT( '', ( 0.000000000000000, 0.000000000000000, 25.0000000000000 ) );
#476 = DIRECTION( '', ( 0.000000000000000, 0.000000000000000, 1.00000000000000 ) );
#477 = DIRECTION( '', ( 0.000000000000000, -1.00000000000000, 0.000000000000000 ) );
#478 = CARTESIAN_POINT( '', ( 4.31444299382857E-016, 9.11256628914486E-015, -45.0000000000000 ) );
#479 = DIRECTION( '', ( -9.58765109739683E-018, -1.68039942289045E-016, 1.00000000000000 ) );
#480 = DIRECTION( '', ( -5.55111512312578E-017, 1.00000000000000, 1.68039942289044E-016 ) );
#481 = CARTESIAN_POINT( '', ( 4.41031950480254E-016, 9.28060623143391E-015, -46.0000000000000 ) );
#482 = DIRECTION( '', ( -9.58765109739683E-018, -1.68039942289044E-016, 1.00000000000000 ) );
#483 = DIRECTION( '', ( -5.55111512312578E-017, 1.00000000000000, 1.68039942289044E-016 ) );
#484 = CARTESIAN_POINT( '', ( 0.000000000000000, 0.000000000000000, 29.5458824988200 ) );
#485 = DIRECTION( '', ( 0.000000000000000, 0.000000000000000, 1.00000000000000 ) );
#486 = DIRECTION( '', ( 1.00000000000000, 0.000000000000000, 0.000000000000000 ) );
#487 = CARTESIAN_POINT( '', ( 4.31444299382857E-016, 9.11256628914486E-015, -45.0000000000000 ) );
#488 = DIRECTION( '', ( 9.58765109739683E-018, 1.68039942289045E-016, -1.00000000000000 ) );
#489 = DIRECTION( '', ( 5.55111512312578E-017, -1.00000000000000, -1.68039942289045E-016 ) );
#490 = CARTESIAN_POINT( '', ( 0.000000000000000, 0.000000000000000, 28.3737934256141 ) );
#491 = DIRECTION( '', ( 0.000000000000000, 0.000000000000000, 1.00000000000000 ) );
#492 = DIRECTION( '', ( 1.00000000000000, 0.000000000000000, 0.000000000000000 ) );
#493 = CARTESIAN_POINT( '', ( 0.000000000000000, 0.000000000000000, 0.448478552756121 ) );
#494 = DIRECTION( '', ( 0.000000000000000, 0.000000000000000, 1.00000000000000 ) );
#495 = DIRECTION( '', ( 1.00000000000000, 0.000000000000000, 0.000000000000000 ) );
#496 = CARTESIAN_POINT( '', ( 5.46496112551619E-016, 1.11290455966134E-014, -57.0000000000000 ) );
#497 = DIRECTION( '', ( -9.58765109739683E-018, -1.68039942289044E-016, 1.00000000000000 ) );
#498 = DIRECTION( '', ( -5.55111512312578E-017, 1.00000000000000, 1.68039942289044E-016 ) );
#499 = CARTESIAN_POINT( '', ( 4.41336398320284E-016, 9.28594219922717E-015, -46.0317541634482 ) );
#500 = DIRECTION( '', ( 9.58765109739683E-018, 1.68039942289044E-016, -1.00000000000000 ) );
#501 = DIRECTION( '', ( 5.55111512312578E-017, -1.00000000000000, -1.68039942289044E-016 ) );
ENDSEC;
END-ISO-10303-21;
