ISO-10303-21;
HEADER;
FILE_DESCRIPTION( ( 'Unknown' ), '1' );
FILE_NAME( 'E:/98-Dis_3D_per_controllo/VBZ/6128015_VBZ26_M08/6128015_VBZ26_M08.stp', 'Unknown', ( 'Unknown' ), ( 'Unknown' ), 'PSStep 11.0', 'Unknown', '  ' );
FILE_SCHEMA( ( 'AUTOMOTIVE_DESIGN { 1 0 10303 214 1 1 1 1 }' ) );
ENDSEC;
DATA;
#1 = MECHANICAL_DESIGN_GEOMETRIC_PRESENTATION_REPRESENTATION( ' ', ( #10, #11, #12, #13, #14, #15, #16, #17, #18, #19, #20, #21, #22, #23 ), #6 );
#2 = PRODUCT_DEFINITION_CONTEXT( '', #24, 'design' );
#3 = APPLICATION_PROTOCOL_DEFINITION( 'INTERNATIONAL STANDARD', 'automotive_design', 2001, #24 );
#4 = PRODUCT_CATEGORY_RELATIONSHIP( 'NONE', 'NONE', #25, #26 );
#5 = SHAPE_DEFINITION_REPRESENTATION( #27, #28 );
#6 =  ( GEOMETRIC_REPRESENTATION_CONTEXT( 3 )GLOBAL_UNCERTAINTY_ASSIGNED_CONTEXT( ( #31 ) )GLOBAL_UNIT_ASSIGNED_CONTEXT( ( #33, #34, #35 ) )REPRESENTATION_CONTEXT( 'NONE', 'WORKSPACE' ) );
#10 = STYLED_ITEM( '', ( #37 ), #38 );
#11 = STYLED_ITEM( '', ( #39 ), #40 );
#12 = STYLED_ITEM( '', ( #41 ), #42 );
#13 = STYLED_ITEM( '', ( #43 ), #44 );
#14 = STYLED_ITEM( '', ( #45 ), #46 );
#15 = STYLED_ITEM( '', ( #47 ), #48 );
#16 = STYLED_ITEM( '', ( #49 ), #50 );
#17 = STYLED_ITEM( '', ( #51 ), #52 );
#18 = STYLED_ITEM( '', ( #53 ), #54 );
#19 = STYLED_ITEM( '', ( #55 ), #56 );
#20 = STYLED_ITEM( '', ( #57 ), #58 );
#21 = STYLED_ITEM( '', ( #59 ), #60 );
#22 = STYLED_ITEM( '', ( #61 ), #62 );
#23 = STYLED_ITEM( '', ( #63 ), #64 );
#24 = APPLICATION_CONTEXT( 'core data for automotive mechanical design processes' );
#25 = PRODUCT_CATEGORY( 'part', 'NONE' );
#26 = PRODUCT_RELATED_PRODUCT_CATEGORY( 'detail', ' ', ( #65 ) );
#27 = PRODUCT_DEFINITION_SHAPE( 'NONE', 'NONE', #66 );
#28 = ADVANCED_BREP_SHAPE_REPRESENTATION( '6128015', ( #67, #68 ), #6 );
#31 = UNCERTAINTY_MEASURE_WITH_UNIT( LENGTH_MEASURE( 0.00100000000000000 ), #33, '', '' );
#33 =  ( CONVERSION_BASED_UNIT( 'MILLIMETRE', #71 )LENGTH_UNIT(  )NAMED_UNIT( #74 ) );
#34 =  ( NAMED_UNIT( #76 )PLANE_ANGLE_UNIT(  )SI_UNIT( $, .RADIAN. ) );
#35 =  ( NAMED_UNIT( #76 )SI_UNIT( $, .STERADIAN. )SOLID_ANGLE_UNIT(  ) );
#37 = PRESENTATION_STYLE_ASSIGNMENT( ( #82 ) );
#38 = ADVANCED_FACE( '', ( #83, #84 ), #85, .F. );
#39 = PRESENTATION_STYLE_ASSIGNMENT( ( #86 ) );
#40 = ADVANCED_FACE( '', ( #87, #88 ), #89, .T. );
#41 = PRESENTATION_STYLE_ASSIGNMENT( ( #90 ) );
#42 = ADVANCED_FACE( '', ( #91, #92 ), #93, .T. );
#43 = PRESENTATION_STYLE_ASSIGNMENT( ( #94 ) );
#44 = ADVANCED_FACE( '', ( #95, #96 ), #97, .T. );
#45 = PRESENTATION_STYLE_ASSIGNMENT( ( #98 ) );
#46 = ADVANCED_FACE( '', ( #99, #100 ), #101, .T. );
#47 = PRESENTATION_STYLE_ASSIGNMENT( ( #102 ) );
#48 = ADVANCED_FACE( '', ( #103, #104 ), #105, .F. );
#49 = PRESENTATION_STYLE_ASSIGNMENT( ( #106 ) );
#50 = ADVANCED_FACE( '', ( #107, #108 ), #109, .F. );
#51 = PRESENTATION_STYLE_ASSIGNMENT( ( #110 ) );
#52 = ADVANCED_FACE( '', ( #111, #112 ), #113, .F. );
#53 = PRESENTATION_STYLE_ASSIGNMENT( ( #114 ) );
#54 = ADVANCED_FACE( '', ( #115, #116 ), #117, .F. );
#55 = PRESENTATION_STYLE_ASSIGNMENT( ( #118 ) );
#56 = ADVANCED_FACE( '', ( #119, #120 ), #121, .T. );
#57 = PRESENTATION_STYLE_ASSIGNMENT( ( #122 ) );
#58 = ADVANCED_FACE( '', ( #123, #124 ), #125, .F. );
#59 = PRESENTATION_STYLE_ASSIGNMENT( ( #126 ) );
#60 = ADVANCED_FACE( '', ( #127, #128 ), #129, .F. );
#61 = PRESENTATION_STYLE_ASSIGNMENT( ( #130 ) );
#62 = ADVANCED_FACE( '', ( #131, #132 ), #133, .F. );
#63 = PRESENTATION_STYLE_ASSIGNMENT( ( #134 ) );
#64 = ADVANCED_FACE( '', ( #135, #136 ), #137, .T. );
#65 = PRODUCT( '6128015', '6128015', 'PART-6128015-DESC', ( #138 ) );
#66 = PRODUCT_DEFINITION( 'NONE', 'NONE', #139, #2 );
#67 = MANIFOLD_SOLID_BREP( '6128015', #140 );
#68 = AXIS2_PLACEMENT_3D( '', #141, #142, #143 );
#71 = LENGTH_MEASURE_WITH_UNIT( LENGTH_MEASURE( 1.00000000000000 ), #144 );
#74 = DIMENSIONAL_EXPONENTS( 1.00000000000000, 0.000000000000000, 0.000000000000000, 0.000000000000000, 0.000000000000000, 0.000000000000000, 0.000000000000000 );
#76 = DIMENSIONAL_EXPONENTS( 0.000000000000000, 0.000000000000000, 0.000000000000000, 0.000000000000000, 0.000000000000000, 0.000000000000000, 0.000000000000000 );
#82 = SURFACE_STYLE_USAGE( .BOTH., #145 );
#83 = FACE_OUTER_BOUND( '', #146, .T. );
#84 = FACE_OUTER_BOUND( '', #147, .T. );
#85 = CYLINDRICAL_SURFACE( '', #148, 3.32350000000000 );
#86 = SURFACE_STYLE_USAGE( .BOTH., #149 );
#87 = FACE_BOUND( '', #150, .T. );
#88 = FACE_OUTER_BOUND( '', #151, .T. );
#89 = ( BOUNDED_SURFACE(  )B_SPLINE_SURFACE( 3, 3, ( ( #154, #155, #156, #157, #158, #159, #160 ), ( #161, #162, #163, #164, #165, #166, #167 ), ( #168, #169, #170, #171, #172, #173, #174 ), ( #175, #176, #177, #178, #179, #180, #181 ) ), .UNSPECIFIED., .F., .T., .F. )B_SPLINE_SURFACE_WITH_KNOTS( ( 4, 4 ), ( 4, 3, 4 ), ( 0.000000000000000, 6.28318530717959 ), ( 1.07248245655072, 1.30103825383277, 1.52959405111481 ), .UNSPECIFIED. )GEOMETRIC_REPRESENTATION_ITEM(  )RATIONAL_B_SPLINE_SURFACE( ( ( 1.00000000000000, 0.333333333333333, 0.333333333333333, 1.00000000000000, 0.333333333333333, 0.333333333333333, 1.00000000000000 ), ( 0.982663083501172, 0.327554361167057, 0.327554361167057, 0.982663083501172, 0.327554361167057, 0.327554361167057, 0.982663083501172 ), ( 0.982663083501172, 0.327554361167057, 0.327554361167057, 0.982663083501172, 0.327554361167057, 0.327554361167057, 0.982663083501172 ), ( 1.00000000000000, 0.333333333333333, 0.333333333333333, 1.00000000000000, 0.333333333333333, 0.333333333333333, 1.00000000000000 ) ) )REPRESENTATION_ITEM( '' )SURFACE(  ) );
#90 = SURFACE_STYLE_USAGE( .BOTH., #187 );
#91 = FACE_OUTER_BOUND( '', #188, .T. );
#92 = FACE_OUTER_BOUND( '', #189, .T. );
#93 = CYLINDRICAL_SURFACE( '', #190, 10.0000000000000 );
#94 = SURFACE_STYLE_USAGE( .BOTH., #191 );
#95 = FACE_OUTER_BOUND( '', #192, .T. );
#96 = FACE_OUTER_BOUND( '', #193, .T. );
#97 = CYLINDRICAL_SURFACE( '', #194, 12.9801254874051 );
#98 = SURFACE_STYLE_USAGE( .BOTH., #195 );
#99 = FACE_OUTER_BOUND( '', #196, .T. );
#100 = FACE_OUTER_BOUND( '', #197, .T. );
#101 = TOROIDAL_SURFACE( '', #198, 9.50000000000000, 0.500000000000000 );
#102 = SURFACE_STYLE_USAGE( .BOTH., #199 );
#103 = FACE_OUTER_BOUND( '', #200, .T. );
#104 = FACE_BOUND( '', #201, .T. );
#105 = CONICAL_SURFACE( '', #202, 3.32350000000000, 1.02974425867665 );
#106 = SURFACE_STYLE_USAGE( .BOTH., #203 );
#107 = FACE_OUTER_BOUND( '', #204, .T. );
#108 = FACE_OUTER_BOUND( '', #205, .T. );
#109 = TOROIDAL_SURFACE( '', #206, 10.2000000000000, 0.200000000000000 );
#110 = SURFACE_STYLE_USAGE( .BOTH., #207 );
#111 = FACE_BOUND( '', #208, .T. );
#112 = FACE_OUTER_BOUND( '', #209, .T. );
#113 = PLANE( '', #210 );
#114 = SURFACE_STYLE_USAGE( .BOTH., #211 );
#115 = FACE_BOUND( '', #212, .T. );
#116 = FACE_OUTER_BOUND( '', #213, .T. );
#117 = CONICAL_SURFACE( '', #214, 4.32350000000000, 0.785398163397448 );
#118 = SURFACE_STYLE_USAGE( .BOTH., #215 );
#119 = FACE_BOUND( '', #216, .T. );
#120 = FACE_OUTER_BOUND( '', #217, .T. );
#121 = CONICAL_SURFACE( '', #218, 12.9801254874051, 0.0816233145763290 );
#122 = SURFACE_STYLE_USAGE( .BOTH., #219 );
#123 = FACE_OUTER_BOUND( '', #220, .T. );
#124 = FACE_BOUND( '', #221, .T. );
#125 = PLANE( '', #222 );
#126 = SURFACE_STYLE_USAGE( .BOTH., #223 );
#127 = FACE_BOUND( '', #224, .T. );
#128 = FACE_OUTER_BOUND( '', #225, .T. );
#129 = PLANE( '', #226 );
#130 = SURFACE_STYLE_USAGE( .BOTH., #227 );
#131 = FACE_OUTER_BOUND( '', #228, .T. );
#132 = FACE_OUTER_BOUND( '', #229, .T. );
#133 = CYLINDRICAL_SURFACE( '', #230, 3.32350000000000 );
#134 = SURFACE_STYLE_USAGE( .BOTH., #231 );
#135 = FACE_OUTER_BOUND( '', #232, .T. );
#136 = FACE_OUTER_BOUND( '', #233, .T. );
#137 = TOROIDAL_SURFACE( '', #234, 12.8301254874051, 0.149999999999990 );
#138 = PRODUCT_CONTEXT( '', #24, 'mechanical' );
#139 = PRODUCT_DEFINITION_FORMATION_WITH_SPECIFIED_SOURCE( ' ', 'NONE', #65, .NOT_KNOWN. );
#140 = CLOSED_SHELL( '', ( #40, #50, #48, #54, #38, #62, #58, #42, #46, #60, #56, #52, #64, #44 ) );
#141 = CARTESIAN_POINT( '', ( 0.000000000000000, 0.000000000000000, 0.000000000000000 ) );
#142 = DIRECTION( '', ( 0.000000000000000, 0.000000000000000, 1.00000000000000 ) );
#143 = DIRECTION( '', ( 1.00000000000000, 0.000000000000000, 0.000000000000000 ) );
#144 =  ( LENGTH_UNIT(  )NAMED_UNIT( #74 )SI_UNIT( .MILLI., .METRE. ) );
#145 = SURFACE_SIDE_STYLE( '', ( #236 ) );
#146 = EDGE_LOOP( '', ( #237 ) );
#147 = EDGE_LOOP( '', ( #238 ) );
#148 = AXIS2_PLACEMENT_3D( '', #239, #240, #241 );
#149 = SURFACE_SIDE_STYLE( '', ( #242 ) );
#150 = VERTEX_LOOP( '', #243 );
#151 = EDGE_LOOP( '', ( #244 ) );
#154 = CARTESIAN_POINT( '', ( -3.25260651745651E-015, 0.0198745125949262, 19.0000000000000 ) );
#155 = CARTESIAN_POINT( '', ( -3.25260651745651E-015, 0.0198745125949196, 19.0000000000000 ) );
#156 = CARTESIAN_POINT( '', ( 3.25504036289680E-015, 0.0198745125949196, 19.0000000000000 ) );
#157 = CARTESIAN_POINT( '', ( 3.25504036289680E-015, 0.0198745125949262, 19.0000000000000 ) );
#158 = CARTESIAN_POINT( '', ( 3.25504036289680E-015, 0.0198745125949327, 19.0000000000000 ) );
#159 = CARTESIAN_POINT( '', ( -3.25260651745651E-015, 0.0198745125949327, 19.0000000000000 ) );
#160 = CARTESIAN_POINT( '', ( -3.25260651745651E-015, 0.0198745125949262, 19.0000000000000 ) );
#161 = CARTESIAN_POINT( '', ( 3.81533108573040, 0.0198745125949262, 18.8427106604828 ) );
#162 = CARTESIAN_POINT( '', ( 3.81533108573040, 7.65053668405573, 18.8427106604828 ) );
#163 = CARTESIAN_POINT( '', ( -3.81533108573040, 7.65053668405573, 18.8427106604828 ) );
#164 = CARTESIAN_POINT( '', ( -3.81533108573040, 0.0198745125949262, 18.8427106604828 ) );
#165 = CARTESIAN_POINT( '', ( -3.81533108573040, -7.61078765886587, 18.8427106604828 ) );
#166 = CARTESIAN_POINT( '', ( 3.81533108573040, -7.61078765886587, 18.8427106604828 ) );
#167 = CARTESIAN_POINT( '', ( 3.81533108573040, 0.0198745125949262, 18.8427106604828 ) );
#168 = CARTESIAN_POINT( '', ( 7.49580583581534, 0.0198745125949262, 17.8250678724409 ) );
#169 = CARTESIAN_POINT( '', ( 7.49580583581534, 15.0114861842256, 17.8250678724409 ) );
#170 = CARTESIAN_POINT( '', ( -7.49580583581534, 15.0114861842256, 17.8250678724409 ) );
#171 = CARTESIAN_POINT( '', ( -7.49580583581534, 0.0198745125949262, 17.8250678724409 ) );
#172 = CARTESIAN_POINT( '', ( -7.49580583581534, -14.9717371590358, 17.8250678724409 ) );
#173 = CARTESIAN_POINT( '', ( 7.49580583581534, -14.9717371590358, 17.8250678724409 ) );
#174 = CARTESIAN_POINT( '', ( 7.49580583581534, 0.0198745125949262, 17.8250678724409 ) );
#175 = CARTESIAN_POINT( '', ( 10.8500000000000, 0.0198745125949262, 16.0000000000000 ) );
#176 = CARTESIAN_POINT( '', ( 10.8500000000000, 21.7198745125949, 16.0000000000000 ) );
#177 = CARTESIAN_POINT( '', ( -10.8500000000000, 21.7198745125949, 16.0000000000000 ) );
#178 = CARTESIAN_POINT( '', ( -10.8500000000000, 0.0198745125949262, 16.0000000000000 ) );
#179 = CARTESIAN_POINT( '', ( -10.8500000000000, -21.6801254874051, 16.0000000000000 ) );
#180 = CARTESIAN_POINT( '', ( 10.8500000000000, -21.6801254874051, 16.0000000000000 ) );
#181 = CARTESIAN_POINT( '', ( 10.8500000000000, 0.0198745125949262, 16.0000000000000 ) );
#187 = SURFACE_SIDE_STYLE( '', ( #245 ) );
#188 = EDGE_LOOP( '', ( #246 ) );
#189 = EDGE_LOOP( '', ( #247 ) );
#190 = AXIS2_PLACEMENT_3D( '', #248, #249, #250 );
#191 = SURFACE_SIDE_STYLE( '', ( #251 ) );
#192 = EDGE_LOOP( '', ( #252 ) );
#193 = EDGE_LOOP( '', ( #253 ) );
#194 = AXIS2_PLACEMENT_3D( '', #254, #255, #256 );
#195 = SURFACE_SIDE_STYLE( '', ( #257 ) );
#196 = EDGE_LOOP( '', ( #258 ) );
#197 = EDGE_LOOP( '', ( #259 ) );
#198 = AXIS2_PLACEMENT_3D( '', #260, #261, #262 );
#199 = SURFACE_SIDE_STYLE( '', ( #263 ) );
#200 = EDGE_LOOP( '', ( #264 ) );
#201 = VERTEX_LOOP( '', #265 );
#202 = AXIS2_PLACEMENT_3D( '', #266, #267, #268 );
#203 = SURFACE_SIDE_STYLE( '', ( #269 ) );
#204 = EDGE_LOOP( '', ( #270 ) );
#205 = EDGE_LOOP( '', ( #271 ) );
#206 = AXIS2_PLACEMENT_3D( '', #272, #273, #274 );
#207 = SURFACE_SIDE_STYLE( '', ( #275 ) );
#208 = EDGE_LOOP( '', ( #276 ) );
#209 = EDGE_LOOP( '', ( #277 ) );
#210 = AXIS2_PLACEMENT_3D( '', #278, #279, #280 );
#211 = SURFACE_SIDE_STYLE( '', ( #281 ) );
#212 = EDGE_LOOP( '', ( #282 ) );
#213 = EDGE_LOOP( '', ( #283 ) );
#214 = AXIS2_PLACEMENT_3D( '', #284, #285, #286 );
#215 = SURFACE_SIDE_STYLE( '', ( #287 ) );
#216 = EDGE_LOOP( '', ( #288 ) );
#217 = EDGE_LOOP( '', ( #289 ) );
#218 = AXIS2_PLACEMENT_3D( '', #290, #291, #292 );
#219 = SURFACE_SIDE_STYLE( '', ( #293 ) );
#220 = EDGE_LOOP( '', ( #294 ) );
#221 = EDGE_LOOP( '', ( #295 ) );
#222 = AXIS2_PLACEMENT_3D( '', #296, #297, #298 );
#223 = SURFACE_SIDE_STYLE( '', ( #299 ) );
#224 = EDGE_LOOP( '', ( #300 ) );
#225 = EDGE_LOOP( '', ( #301 ) );
#226 = AXIS2_PLACEMENT_3D( '', #302, #303, #304 );
#227 = SURFACE_SIDE_STYLE( '', ( #305 ) );
#228 = EDGE_LOOP( '', ( #306 ) );
#229 = EDGE_LOOP( '', ( #307 ) );
#230 = AXIS2_PLACEMENT_3D( '', #308, #309, #310 );
#231 = SURFACE_SIDE_STYLE( '', ( #311 ) );
#232 = EDGE_LOOP( '', ( #312 ) );
#233 = EDGE_LOOP( '', ( #313 ) );
#234 = AXIS2_PLACEMENT_3D( '', #314, #315, #316 );
#236 = SURFACE_STYLE_FILL_AREA( #317 );
#237 = ORIENTED_EDGE( '', *, *, #318, .T. );
#238 = ORIENTED_EDGE( '', *, *, #319, .F. );
#239 = CARTESIAN_POINT( '', ( 0.000000000000000, 0.000000000000000, 3.82689485569493E-015 ) );
#240 = DIRECTION( '', ( -0.000000000000000, 0.000000000000000, -1.00000000000000 ) );
#241 = DIRECTION( '', ( 0.000000000000000, 1.00000000000000, 0.000000000000000 ) );
#242 = SURFACE_STYLE_FILL_AREA( #320 );
#243 = VERTEX_POINT( '', #321 );
#244 = ORIENTED_EDGE( '', *, *, #322, .T. );
#245 = SURFACE_STYLE_FILL_AREA( #323 );
#246 = ORIENTED_EDGE( '', *, *, #324, .T. );
#247 = ORIENTED_EDGE( '', *, *, #325, .T. );
#248 = CARTESIAN_POINT( '', ( 1.21692272014348E-018, 0.0198745125949262, 19.0000000000000 ) );
#249 = DIRECTION( '', ( -0.000000000000000, -0.000000000000000, -1.00000000000000 ) );
#250 = DIRECTION( '', ( 1.00000000000000, 0.000000000000000, 0.000000000000000 ) );
#251 = SURFACE_STYLE_FILL_AREA( #326 );
#252 = ORIENTED_EDGE( '', *, *, #327, .F. );
#253 = ORIENTED_EDGE( '', *, *, #328, .T. );
#254 = CARTESIAN_POINT( '', ( 1.21692272014348E-018, 0.0198745125949262, 19.0000000000000 ) );
#255 = DIRECTION( '', ( -0.000000000000000, -0.000000000000000, -1.00000000000000 ) );
#256 = DIRECTION( '', ( 1.00000000000000, 0.000000000000000, 0.000000000000000 ) );
#257 = SURFACE_STYLE_FILL_AREA( #329 );
#258 = ORIENTED_EDGE( '', *, *, #330, .F. );
#259 = ORIENTED_EDGE( '', *, *, #325, .F. );
#260 = CARTESIAN_POINT( '', ( 1.21692272014348E-018, 0.0198745125949262, 0.500000000000000 ) );
#261 = DIRECTION( '', ( 0.000000000000000, 0.000000000000000, 1.00000000000000 ) );
#262 = DIRECTION( '', ( 1.00000000000000, 0.000000000000000, 0.000000000000000 ) );
#263 = SURFACE_STYLE_FILL_AREA( #331 );
#264 = ORIENTED_EDGE( '', *, *, #332, .F. );
#265 = VERTEX_POINT( '', #333 );
#266 = CARTESIAN_POINT( '', ( 0.000000000000000, 0.000000000000000, 9.50303973266190 ) );
#267 = DIRECTION( '', ( 0.000000000000000, -0.000000000000000, -1.00000000000000 ) );
#268 = DIRECTION( '', ( 0.000000000000000, -1.00000000000000, 0.000000000000000 ) );
#269 = SURFACE_STYLE_FILL_AREA( #334 );
#270 = ORIENTED_EDGE( '', *, *, #324, .F. );
#271 = ORIENTED_EDGE( '', *, *, #335, .F. );
#272 = CARTESIAN_POINT( '', ( 1.21692272014348E-018, 0.0198745125949262, 6.80000000000000 ) );
#273 = DIRECTION( '', ( 0.000000000000000, 0.000000000000000, 1.00000000000000 ) );
#274 = DIRECTION( '', ( 1.00000000000000, 0.000000000000000, 0.000000000000000 ) );
#275 = SURFACE_STYLE_FILL_AREA( #336 );
#276 = ORIENTED_EDGE( '', *, *, #335, .T. );
#277 = ORIENTED_EDGE( '', *, *, #337, .F. );
#278 = CARTESIAN_POINT( '', ( 6.13520099631332E-016, 10.0198745125949, 7.00000000000000 ) );
#279 = DIRECTION( '', ( 0.000000000000000, 0.000000000000000, 1.00000000000000 ) );
#280 = DIRECTION( '', ( 1.00000000000000, 0.000000000000000, 0.000000000000000 ) );
#281 = SURFACE_STYLE_FILL_AREA( #338 );
#282 = ORIENTED_EDGE( '', *, *, #318, .F. );
#283 = ORIENTED_EDGE( '', *, *, #339, .F. );
#284 = CARTESIAN_POINT( '', ( 0.000000000000000, 0.000000000000000, 3.82689485569493E-015 ) );
#285 = DIRECTION( '', ( -0.000000000000000, 0.000000000000000, -1.00000000000000 ) );
#286 = DIRECTION( '', ( -1.00000000000000, 0.000000000000000, 0.000000000000000 ) );
#287 = SURFACE_STYLE_FILL_AREA( #340 );
#288 = ORIENTED_EDGE( '', *, *, #341, .F. );
#289 = ORIENTED_EDGE( '', *, *, #327, .T. );
#290 = CARTESIAN_POINT( '', ( 1.21692272014348E-018, 0.0198745125949262, 9.00000000000000 ) );
#291 = DIRECTION( '', ( -0.000000000000000, 0.000000000000000, -1.00000000000000 ) );
#292 = DIRECTION( '', ( -1.00000000000000, 0.000000000000000, 0.000000000000000 ) );
#293 = SURFACE_STYLE_FILL_AREA( #342 );
#294 = ORIENTED_EDGE( '', *, *, #330, .T. );
#295 = ORIENTED_EDGE( '', *, *, #339, .T. );
#296 = CARTESIAN_POINT( '', ( 1.21692272014352E-018, 0.0198745125949270, 5.38565433887963E-015 ) );
#297 = DIRECTION( '', ( 0.000000000000000, 0.000000000000000, 1.00000000000000 ) );
#298 = DIRECTION( '', ( 1.00000000000000, 0.000000000000000, 0.000000000000000 ) );
#299 = SURFACE_STYLE_FILL_AREA( #343 );
#300 = ORIENTED_EDGE( '', *, *, #322, .F. );
#301 = ORIENTED_EDGE( '', *, *, #341, .T. );
#302 = CARTESIAN_POINT( '', ( 6.65565869668783E-016, 10.8698745125949, 16.0000000000000 ) );
#303 = DIRECTION( '', ( 0.000000000000000, 0.000000000000000, -1.00000000000000 ) );
#304 = DIRECTION( '', ( -1.00000000000000, 0.000000000000000, 0.000000000000000 ) );
#305 = SURFACE_STYLE_FILL_AREA( #344 );
#306 = ORIENTED_EDGE( '', *, *, #332, .T. );
#307 = ORIENTED_EDGE( '', *, *, #319, .T. );
#308 = CARTESIAN_POINT( '', ( 0.000000000000000, 0.000000000000000, 3.82689485569493E-015 ) );
#309 = DIRECTION( '', ( -0.000000000000000, 0.000000000000000, -1.00000000000000 ) );
#310 = DIRECTION( '', ( 0.000000000000000, 1.00000000000000, 0.000000000000000 ) );
#311 = SURFACE_STYLE_FILL_AREA( #345 );
#312 = ORIENTED_EDGE( '', *, *, #328, .F. );
#313 = ORIENTED_EDGE( '', *, *, #337, .T. );
#314 = CARTESIAN_POINT( '', ( 1.21692272014345E-018, 0.0198745125949262, 7.15000000000000 ) );
#315 = DIRECTION( '', ( 0.000000000000000, 0.000000000000000, 1.00000000000000 ) );
#316 = DIRECTION( '', ( 1.00000000000000, 0.000000000000000, 0.000000000000000 ) );
#317 = FILL_AREA_STYLE( '', ( #346 ) );
#318 = EDGE_CURVE( '', #347, #347, #348, .F. );
#319 = EDGE_CURVE( '', #349, #349, #350, .T. );
#320 = FILL_AREA_STYLE( '', ( #351 ) );
#321 = CARTESIAN_POINT( '', ( 1.21692272014348E-018, 0.0198745125949262, 19.0000000000000 ) );
#322 = EDGE_CURVE( '', #352, #352, #353, .T. );
#323 = FILL_AREA_STYLE( '', ( #354 ) );
#324 = EDGE_CURVE( '', #355, #355, #356, .F. );
#325 = EDGE_CURVE( '', #357, #357, #358, .T. );
#326 = FILL_AREA_STYLE( '', ( #359 ) );
#327 = EDGE_CURVE( '', #360, #360, #361, .T. );
#328 = EDGE_CURVE( '', #362, #362, #363, .T. );
#329 = FILL_AREA_STYLE( '', ( #364 ) );
#330 = EDGE_CURVE( '', #365, #365, #366, .F. );
#331 = FILL_AREA_STYLE( '', ( #367 ) );
#332 = EDGE_CURVE( '', #368, #368, #369, .T. );
#333 = CARTESIAN_POINT( '', ( 0.000000000000000, 0.000000000000000, 11.5000000000000 ) );
#334 = FILL_AREA_STYLE( '', ( #370 ) );
#335 = EDGE_CURVE( '', #371, #371, #372, .T. );
#336 = FILL_AREA_STYLE( '', ( #373 ) );
#337 = EDGE_CURVE( '', #374, #374, #375, .T. );
#338 = FILL_AREA_STYLE( '', ( #376 ) );
#339 = EDGE_CURVE( '', #377, #377, #378, .T. );
#340 = FILL_AREA_STYLE( '', ( #379 ) );
#341 = EDGE_CURVE( '', #380, #380, #381, .T. );
#342 = FILL_AREA_STYLE( '', ( #382 ) );
#343 = FILL_AREA_STYLE( '', ( #383 ) );
#344 = FILL_AREA_STYLE( '', ( #384 ) );
#345 = FILL_AREA_STYLE( '', ( #385 ) );
#346 = FILL_AREA_STYLE_COLOUR( '', #386 );
#347 = VERTEX_POINT( '', #387 );
#348 = CIRCLE( '', #388, 3.32350000000000 );
#349 = VERTEX_POINT( '', #389 );
#350 = CIRCLE( '', #390, 3.32350000000000 );
#351 = FILL_AREA_STYLE_COLOUR( '', #391 );
#352 = VERTEX_POINT( '', #392 );
#353 = CIRCLE( '', #393, 10.8500000000000 );
#354 = FILL_AREA_STYLE_COLOUR( '', #394 );
#355 = VERTEX_POINT( '', #395 );
#356 = CIRCLE( '', #396, 10.0000000000000 );
#357 = VERTEX_POINT( '', #397 );
#358 = CIRCLE( '', #398, 10.0000000000000 );
#359 = FILL_AREA_STYLE_COLOUR( '', #399 );
#360 = VERTEX_POINT( '', #400 );
#361 = CIRCLE( '', #401, 12.9801254874051 );
#362 = VERTEX_POINT( '', #402 );
#363 = CIRCLE( '', #403, 12.9801254874051 );
#364 = FILL_AREA_STYLE_COLOUR( '', #404 );
#365 = VERTEX_POINT( '', #405 );
#366 = CIRCLE( '', #406, 9.50000000000000 );
#367 = FILL_AREA_STYLE_COLOUR( '', #407 );
#368 = VERTEX_POINT( '', #408 );
#369 = CIRCLE( '', #409, 3.32350000000000 );
#370 = FILL_AREA_STYLE_COLOUR( '', #410 );
#371 = VERTEX_POINT( '', #411 );
#372 = CIRCLE( '', #412, 10.2000000000000 );
#373 = FILL_AREA_STYLE_COLOUR( '', #413 );
#374 = VERTEX_POINT( '', #414 );
#375 = CIRCLE( '', #415, 12.8301254874051 );
#376 = FILL_AREA_STYLE_COLOUR( '', #416 );
#377 = VERTEX_POINT( '', #417 );
#378 = CIRCLE( '', #418, 4.32350000000000 );
#379 = FILL_AREA_STYLE_COLOUR( '', #419 );
#380 = VERTEX_POINT( '', #420 );
#381 = CIRCLE( '', #421, 12.4074900179138 );
#382 = FILL_AREA_STYLE_COLOUR( '', #422 );
#383 = FILL_AREA_STYLE_COLOUR( '', #423 );
#384 = FILL_AREA_STYLE_COLOUR( '', #424 );
#385 = FILL_AREA_STYLE_COLOUR( '', #425 );
#386 = COLOUR_RGB( '', 0.752941191196442, 0.752941191196442, 0.752941191196442 );
#387 = CARTESIAN_POINT( '', ( 3.32350000000000, 0.000000000000000, 1.00000000000000 ) );
#388 = AXIS2_PLACEMENT_3D( '', #426, #427, #428 );
#389 = CARTESIAN_POINT( '', ( 0.000000000000000, 3.32350000000000, 9.00000000000000 ) );
#390 = AXIS2_PLACEMENT_3D( '', #429, #430, #431 );
#391 = COLOUR_RGB( '', 0.200000002980232, 0.200000002980232, 0.200000002980232 );
#392 = CARTESIAN_POINT( '', ( 10.8500000000000, 0.0198745125949262, 16.0000000000000 ) );
#393 = AXIS2_PLACEMENT_3D( '', #432, #433, #434 );
#394 = COLOUR_RGB( '', 0.200000002980232, 0.200000002980232, 0.200000002980232 );
#395 = CARTESIAN_POINT( '', ( 10.0000000000000, 0.0198745125949262, 6.80000000000000 ) );
#396 = AXIS2_PLACEMENT_3D( '', #435, #436, #437 );
#397 = CARTESIAN_POINT( '', ( 10.0000000000000, 0.0198745125949262, 0.500000000000000 ) );
#398 = AXIS2_PLACEMENT_3D( '', #438, #439, #440 );
#399 = COLOUR_RGB( '', 0.200000002980232, 0.200000002980232, 0.200000002980232 );
#400 = CARTESIAN_POINT( '', ( 12.9801254874051, 0.0198745125949262, 9.00000000000000 ) );
#401 = AXIS2_PLACEMENT_3D( '', #441, #442, #443 );
#402 = CARTESIAN_POINT( '', ( 12.9801254874051, 0.0198745125949262, 7.15000000000000 ) );
#403 = AXIS2_PLACEMENT_3D( '', #444, #445, #446 );
#404 = COLOUR_RGB( '', 0.200000002980232, 0.200000002980232, 0.200000002980232 );
#405 = CARTESIAN_POINT( '', ( 9.50000000000000, 0.0198745125949262, 5.42101086242752E-015 ) );
#406 = AXIS2_PLACEMENT_3D( '', #447, #448, #449 );
#407 = COLOUR_RGB( '', 0.666666686534882, 0.400000005960464, 0.133333340287209 );
#408 = CARTESIAN_POINT( '', ( 0.000000000000000, -3.32350000000000, 9.50303973266190 ) );
#409 = AXIS2_PLACEMENT_3D( '', #450, #451, #452 );
#410 = COLOUR_RGB( '', 0.200000002980232, 0.200000002980232, 0.200000002980232 );
#411 = CARTESIAN_POINT( '', ( 10.2000000000000, 0.0198745125949262, 7.00000000000000 ) );
#412 = AXIS2_PLACEMENT_3D( '', #453, #454, #455 );
#413 = COLOUR_RGB( '', 0.200000002980232, 0.200000002980232, 0.200000002980232 );
#414 = CARTESIAN_POINT( '', ( 12.8301254874051, 0.0198745125949262, 7.00000000000000 ) );
#415 = AXIS2_PLACEMENT_3D( '', #456, #457, #458 );
#416 = COLOUR_RGB( '', 0.666666686534882, 0.400000005960464, 0.133333340287209 );
#417 = CARTESIAN_POINT( '', ( 4.32350000000000, 0.000000000000000, 3.82689485569493E-015 ) );
#418 = AXIS2_PLACEMENT_3D( '', #459, #460, #461 );
#419 = COLOUR_RGB( '', 0.200000002980232, 0.200000002980232, 0.200000002980232 );
#420 = CARTESIAN_POINT( '', ( 12.4074900179138, 0.0198745125949262, 16.0000000000000 ) );
#421 = AXIS2_PLACEMENT_3D( '', #462, #463, #464 );
#422 = COLOUR_RGB( '', 0.752941191196442, 0.752941191196442, 0.752941191196442 );
#423 = COLOUR_RGB( '', 0.200000002980232, 0.200000002980232, 0.200000002980232 );
#424 = COLOUR_RGB( '', 0.666666686534882, 0.400000005960464, 0.133333340287209 );
#425 = COLOUR_RGB( '', 0.200000002980232, 0.200000002980232, 0.200000002980232 );
#426 = CARTESIAN_POINT( '', ( 0.000000000000000, 0.000000000000000, 1.00000000000000 ) );
#427 = DIRECTION( '', ( 0.000000000000000, 0.000000000000000, 1.00000000000000 ) );
#428 = DIRECTION( '', ( 1.00000000000000, 0.000000000000000, 0.000000000000000 ) );
#429 = CARTESIAN_POINT( '', ( 0.000000000000000, 0.000000000000000, 9.00000000000000 ) );
#430 = DIRECTION( '', ( 0.000000000000000, 0.000000000000000, -1.00000000000000 ) );
#431 = DIRECTION( '', ( 0.000000000000000, 1.00000000000000, 0.000000000000000 ) );
#432 = CARTESIAN_POINT( '', ( 1.21692272014348E-018, 0.0198745125949262, 16.0000000000000 ) );
#433 = DIRECTION( '', ( 0.000000000000000, 0.000000000000000, 1.00000000000000 ) );
#434 = DIRECTION( '', ( 1.00000000000000, 0.000000000000000, 0.000000000000000 ) );
#435 = CARTESIAN_POINT( '', ( 1.21692272014348E-018, 0.0198745125949262, 6.80000000000000 ) );
#436 = DIRECTION( '', ( 0.000000000000000, 0.000000000000000, 1.00000000000000 ) );
#437 = DIRECTION( '', ( 1.00000000000000, 0.000000000000000, 0.000000000000000 ) );
#438 = CARTESIAN_POINT( '', ( 1.21692272014348E-018, 0.0198745125949262, 0.500000000000000 ) );
#439 = DIRECTION( '', ( 0.000000000000000, 0.000000000000000, 1.00000000000000 ) );
#440 = DIRECTION( '', ( 1.00000000000000, 0.000000000000000, 0.000000000000000 ) );
#441 = CARTESIAN_POINT( '', ( 1.21692272014348E-018, 0.0198745125949262, 9.00000000000000 ) );
#442 = DIRECTION( '', ( 0.000000000000000, 0.000000000000000, 1.00000000000000 ) );
#443 = DIRECTION( '', ( 1.00000000000000, 0.000000000000000, 0.000000000000000 ) );
#444 = CARTESIAN_POINT( '', ( 1.21692272014348E-018, 0.0198745125949262, 7.15000000000000 ) );
#445 = DIRECTION( '', ( 0.000000000000000, 0.000000000000000, 1.00000000000000 ) );
#446 = DIRECTION( '', ( 1.00000000000000, 0.000000000000000, 0.000000000000000 ) );
#447 = CARTESIAN_POINT( '', ( 1.21692272014348E-018, 0.0198745125949262, 5.42101086242752E-015 ) );
#448 = DIRECTION( '', ( 0.000000000000000, 0.000000000000000, 1.00000000000000 ) );
#449 = DIRECTION( '', ( 1.00000000000000, 0.000000000000000, 0.000000000000000 ) );
#450 = CARTESIAN_POINT( '', ( 0.000000000000000, 0.000000000000000, 9.50303973266190 ) );
#451 = DIRECTION( '', ( 0.000000000000000, 0.000000000000000, 1.00000000000000 ) );
#452 = DIRECTION( '', ( 0.000000000000000, -1.00000000000000, 0.000000000000000 ) );
#453 = CARTESIAN_POINT( '', ( 1.21692272014348E-018, 0.0198745125949262, 7.00000000000000 ) );
#454 = DIRECTION( '', ( 0.000000000000000, 0.000000000000000, 1.00000000000000 ) );
#455 = DIRECTION( '', ( 1.00000000000000, 0.000000000000000, 0.000000000000000 ) );
#456 = CARTESIAN_POINT( '', ( 1.21692272014348E-018, 0.0198745125949262, 7.00000000000000 ) );
#457 = DIRECTION( '', ( 0.000000000000000, 0.000000000000000, 1.00000000000000 ) );
#458 = DIRECTION( '', ( 1.00000000000000, 0.000000000000000, 0.000000000000000 ) );
#459 = CARTESIAN_POINT( '', ( 0.000000000000000, 0.000000000000000, 3.82689485569493E-015 ) );
#460 = DIRECTION( '', ( 0.000000000000000, 0.000000000000000, 1.00000000000000 ) );
#461 = DIRECTION( '', ( 1.00000000000000, 0.000000000000000, 0.000000000000000 ) );
#462 = CARTESIAN_POINT( '', ( 1.21692272014348E-018, 0.0198745125949262, 16.0000000000000 ) );
#463 = DIRECTION( '', ( 0.000000000000000, 0.000000000000000, 1.00000000000000 ) );
#464 = DIRECTION( '', ( 1.00000000000000, 0.000000000000000, 0.000000000000000 ) );
ENDSEC;
END-ISO-10303-21;
