ISO-10303-21;
HEADER;
/* Generated by software containing ST-Developer
 * from STEP Tools, Inc. (www.steptools.com) 
 */
/* OPTION: strings as raw bytes, not using required /X/ escapes */

FILE_DESCRIPTION(
/* description */ ('File step'),
/* implementation_level */ '2;1');

FILE_NAME(
/* name */ '6127035',
/* time_stamp */ '2022-01-26T15:53:49+01:00',
/* author */ ('Zorzan D.'),
/* organization */ ('Gamm Srl.'),
/* preprocessor_version */ 'ST-DEVELOPER v16.7',
/* originating_system */ 'Solid Edge',
/* authorisation */ 'Unknown');

FILE_SCHEMA (('CONFIG_CONTROL_DESIGN'));
ENDSEC;

DATA;
#10=PROPERTY_DEFINITION_REPRESENTATION(#14,#12);
#11=PROPERTY_DEFINITION_REPRESENTATION(#15,#13);
#12=REPRESENTATION('',(#16),#499);
#13=REPRESENTATION('',(#17),#499);
#14=PROPERTY_DEFINITION('pmi validation property','',#504);
#15=PROPERTY_DEFINITION('pmi validation property','',#504);
#16=VALUE_REPRESENTATION_ITEM('number of annotations',COUNT_MEASURE(0.));
#17=VALUE_REPRESENTATION_ITEM('number of views',COUNT_MEASURE(0.));
#18=SHAPE_REPRESENTATION_RELATIONSHIP('','',#336,#19);
#19=ADVANCED_BREP_SHAPE_REPRESENTATION('',(#334),#499);
#20=ORIENTED_CLOSED_SHELL('',*,#333,.F.);
#21=CYLINDRICAL_SURFACE('',#346,10.9801254874051);
#22=CYLINDRICAL_SURFACE('',#354,7.5);
#23=CYLINDRICAL_SURFACE('',#365,3.);
#24=CYLINDRICAL_SURFACE('',#370,3.);
#25=CONICAL_SURFACE('',#344,10.9801254874051,0.083141231888441);
#26=CONICAL_SURFACE('',#362,3.,0.785398163397448);
#27=CONICAL_SURFACE('',#372,1.70000000000001,0.785398163397449);
#28=PLANE('',#342);
#29=PLANE('',#350);
#30=PLANE('',#358);
#31=PLANE('',#366);
#32=PLANE('',#367);
#33=TOROIDAL_SURFACE('',#340,8.89170962188936,0.5);
#34=TOROIDAL_SURFACE('',#348,9.98012548740507,1.);
#35=TOROIDAL_SURFACE('',#352,8.,0.5);
#36=TOROIDAL_SURFACE('',#356,7.,0.5);
#37=TOROIDAL_SURFACE('',#360,3.2,0.2);
#38=ORIENTED_EDGE('',*,*,#72,.T.);
#39=ORIENTED_EDGE('',*,*,#73,.F.);
#40=ORIENTED_EDGE('',*,*,#72,.F.);
#41=ORIENTED_EDGE('',*,*,#73,.T.);
#42=ORIENTED_EDGE('',*,*,#74,.T.);
#43=ORIENTED_EDGE('',*,*,#74,.F.);
#44=ORIENTED_EDGE('',*,*,#75,.T.);
#45=ORIENTED_EDGE('',*,*,#76,.T.);
#46=ORIENTED_EDGE('',*,*,#75,.F.);
#47=ORIENTED_EDGE('',*,*,#77,.F.);
#48=ORIENTED_EDGE('',*,*,#76,.F.);
#49=ORIENTED_EDGE('',*,*,#78,.T.);
#50=ORIENTED_EDGE('',*,*,#77,.T.);
#51=ORIENTED_EDGE('',*,*,#79,.F.);
#52=ORIENTED_EDGE('',*,*,#78,.F.);
#53=ORIENTED_EDGE('',*,*,#80,.T.);
#54=ORIENTED_EDGE('',*,*,#79,.T.);
#55=ORIENTED_EDGE('',*,*,#81,.F.);
#56=ORIENTED_EDGE('',*,*,#80,.F.);
#57=ORIENTED_EDGE('',*,*,#81,.T.);
#58=ORIENTED_EDGE('',*,*,#82,.T.);
#59=ORIENTED_EDGE('',*,*,#83,.F.);
#60=ORIENTED_EDGE('',*,*,#82,.F.);
#61=ORIENTED_EDGE('',*,*,#84,.F.);
#62=ORIENTED_EDGE('',*,*,#85,.F.);
#63=ORIENTED_EDGE('',*,*,#83,.T.);
#64=ORIENTED_EDGE('',*,*,#85,.T.);
#65=ORIENTED_EDGE('',*,*,#84,.T.);
#66=ORIENTED_EDGE('',*,*,#86,.T.);
#67=ORIENTED_EDGE('',*,*,#87,.F.);
#68=ORIENTED_EDGE('',*,*,#88,.T.);
#69=ORIENTED_EDGE('',*,*,#87,.T.);
#70=ORIENTED_EDGE('',*,*,#86,.F.);
#71=ORIENTED_EDGE('',*,*,#88,.F.);
#72=EDGE_CURVE('',#89,#89,#106,.F.);
#73=EDGE_CURVE('',#90,#90,#107,.T.);
#74=EDGE_CURVE('',#91,#91,#108,.T.);
#75=EDGE_CURVE('',#92,#92,#109,.T.);
#76=EDGE_CURVE('',#93,#93,#110,.T.);
#77=EDGE_CURVE('',#94,#94,#111,.F.);
#78=EDGE_CURVE('',#95,#95,#112,.T.);
#79=EDGE_CURVE('',#96,#96,#113,.F.);
#80=EDGE_CURVE('',#97,#97,#114,.T.);
#81=EDGE_CURVE('',#98,#98,#115,.F.);
#82=EDGE_CURVE('',#99,#99,#116,.T.);
#83=EDGE_CURVE('',#100,#100,#117,.F.);
#84=EDGE_CURVE('',#101,#101,#118,.F.);
#85=EDGE_CURVE('',#102,#102,#119,.T.);
#86=EDGE_CURVE('',#103,#103,#120,.T.);
#87=EDGE_CURVE('',#104,#104,#121,.T.);
#88=EDGE_CURVE('',#105,#105,#122,.T.);
#89=VERTEX_POINT('',#448);
#90=VERTEX_POINT('',#451);
#91=VERTEX_POINT('',#454);
#92=VERTEX_POINT('',#457);
#93=VERTEX_POINT('',#460);
#94=VERTEX_POINT('',#463);
#95=VERTEX_POINT('',#466);
#96=VERTEX_POINT('',#469);
#97=VERTEX_POINT('',#472);
#98=VERTEX_POINT('',#475);
#99=VERTEX_POINT('',#478);
#100=VERTEX_POINT('',#481);
#101=VERTEX_POINT('',#484);
#102=VERTEX_POINT('',#486);
#103=VERTEX_POINT('',#491);
#104=VERTEX_POINT('',#493);
#105=VERTEX_POINT('',#496);
#106=CIRCLE('',#339,8.63114670256659);
#107=CIRCLE('',#341,8.89170962188936);
#108=CIRCLE('',#343,10.4801254874051);
#109=CIRCLE('',#345,10.9801254874051);
#110=CIRCLE('',#347,10.9801254874051);
#111=CIRCLE('',#349,9.98012548740507);
#112=CIRCLE('',#351,8.);
#113=CIRCLE('',#353,7.5);
#114=CIRCLE('',#355,7.5);
#115=CIRCLE('',#357,7.);
#116=CIRCLE('',#359,3.2);
#117=CIRCLE('',#361,3.);
#118=CIRCLE('',#363,1.5);
#119=CIRCLE('',#364,3.);
#120=CIRCLE('',#368,1.70000000000001);
#121=CIRCLE('',#369,3.);
#122=CIRCLE('',#371,3.);
#123=EDGE_LOOP('',(#38));
#124=EDGE_LOOP('',(#39));
#125=EDGE_LOOP('',(#40));
#126=EDGE_LOOP('',(#41));
#127=EDGE_LOOP('',(#42));
#128=EDGE_LOOP('',(#43));
#129=EDGE_LOOP('',(#44));
#130=EDGE_LOOP('',(#45));
#131=EDGE_LOOP('',(#46));
#132=EDGE_LOOP('',(#47));
#133=EDGE_LOOP('',(#48));
#134=EDGE_LOOP('',(#49));
#135=EDGE_LOOP('',(#50));
#136=EDGE_LOOP('',(#51));
#137=EDGE_LOOP('',(#52));
#138=EDGE_LOOP('',(#53));
#139=EDGE_LOOP('',(#54));
#140=EDGE_LOOP('',(#55));
#141=EDGE_LOOP('',(#56));
#142=EDGE_LOOP('',(#57));
#143=EDGE_LOOP('',(#58));
#144=EDGE_LOOP('',(#59));
#145=EDGE_LOOP('',(#60));
#146=EDGE_LOOP('',(#61));
#147=EDGE_LOOP('',(#62));
#148=EDGE_LOOP('',(#63));
#149=EDGE_LOOP('',(#64));
#150=EDGE_LOOP('',(#65));
#151=EDGE_LOOP('',(#66));
#152=EDGE_LOOP('',(#67));
#153=EDGE_LOOP('',(#68));
#154=EDGE_LOOP('',(#69));
#155=EDGE_LOOP('',(#70));
#156=EDGE_LOOP('',(#71));
#157=FACE_BOUND('',#123,.T.);
#158=FACE_BOUND('',#124,.T.);
#159=FACE_BOUND('',#125,.T.);
#160=FACE_BOUND('',#126,.T.);
#161=FACE_BOUND('',#127,.T.);
#162=FACE_BOUND('',#128,.T.);
#163=FACE_BOUND('',#129,.T.);
#164=FACE_BOUND('',#130,.T.);
#165=FACE_BOUND('',#131,.T.);
#166=FACE_BOUND('',#132,.T.);
#167=FACE_BOUND('',#133,.T.);
#168=FACE_BOUND('',#134,.T.);
#169=FACE_BOUND('',#135,.T.);
#170=FACE_BOUND('',#136,.T.);
#171=FACE_BOUND('',#137,.T.);
#172=FACE_BOUND('',#138,.T.);
#173=FACE_BOUND('',#139,.T.);
#174=FACE_BOUND('',#140,.T.);
#175=FACE_BOUND('',#141,.T.);
#176=FACE_BOUND('',#142,.T.);
#177=FACE_BOUND('',#143,.T.);
#178=FACE_BOUND('',#144,.T.);
#179=FACE_BOUND('',#145,.T.);
#180=FACE_BOUND('',#146,.T.);
#181=FACE_BOUND('',#147,.T.);
#182=FACE_BOUND('',#148,.T.);
#183=FACE_BOUND('',#149,.T.);
#184=FACE_BOUND('',#150,.T.);
#185=FACE_BOUND('',#151,.T.);
#186=FACE_BOUND('',#152,.T.);
#187=FACE_BOUND('',#153,.T.);
#188=FACE_BOUND('',#154,.T.);
#189=FACE_BOUND('',#155,.T.);
#190=FACE_BOUND('',#156,.T.);
#191=SPHERICAL_SURFACE('',#338,16.5625);
#192=STYLED_ITEM('',(#209),#314);
#193=STYLED_ITEM('',(#210),#315);
#194=STYLED_ITEM('',(#211),#316);
#195=STYLED_ITEM('',(#212),#317);
#196=STYLED_ITEM('',(#213),#318);
#197=STYLED_ITEM('',(#214),#319);
#198=STYLED_ITEM('',(#215),#320);
#199=STYLED_ITEM('',(#216),#321);
#200=STYLED_ITEM('',(#217),#322);
#201=STYLED_ITEM('',(#218),#323);
#202=STYLED_ITEM('',(#219),#325);
#203=STYLED_ITEM('',(#220),#326);
#204=STYLED_ITEM('',(#221),#327);
#205=STYLED_ITEM('',(#222),#328);
#206=STYLED_ITEM('',(#223),#329);
#207=STYLED_ITEM('',(#224),#330);
#208=STYLED_ITEM('',(#225),#331);
#209=PRESENTATION_STYLE_ASSIGNMENT((#226));
#210=PRESENTATION_STYLE_ASSIGNMENT((#227));
#211=PRESENTATION_STYLE_ASSIGNMENT((#228));
#212=PRESENTATION_STYLE_ASSIGNMENT((#229));
#213=PRESENTATION_STYLE_ASSIGNMENT((#230));
#214=PRESENTATION_STYLE_ASSIGNMENT((#231));
#215=PRESENTATION_STYLE_ASSIGNMENT((#232));
#216=PRESENTATION_STYLE_ASSIGNMENT((#233));
#217=PRESENTATION_STYLE_ASSIGNMENT((#234));
#218=PRESENTATION_STYLE_ASSIGNMENT((#235));
#219=PRESENTATION_STYLE_ASSIGNMENT((#236));
#220=PRESENTATION_STYLE_ASSIGNMENT((#237));
#221=PRESENTATION_STYLE_ASSIGNMENT((#238));
#222=PRESENTATION_STYLE_ASSIGNMENT((#239));
#223=PRESENTATION_STYLE_ASSIGNMENT((#240));
#224=PRESENTATION_STYLE_ASSIGNMENT((#241));
#225=PRESENTATION_STYLE_ASSIGNMENT((#242));
#226=SURFACE_STYLE_USAGE(.BOTH.,#243);
#227=SURFACE_STYLE_USAGE(.BOTH.,#244);
#228=SURFACE_STYLE_USAGE(.BOTH.,#245);
#229=SURFACE_STYLE_USAGE(.BOTH.,#246);
#230=SURFACE_STYLE_USAGE(.BOTH.,#247);
#231=SURFACE_STYLE_USAGE(.BOTH.,#248);
#232=SURFACE_STYLE_USAGE(.BOTH.,#249);
#233=SURFACE_STYLE_USAGE(.BOTH.,#250);
#234=SURFACE_STYLE_USAGE(.BOTH.,#251);
#235=SURFACE_STYLE_USAGE(.BOTH.,#252);
#236=SURFACE_STYLE_USAGE(.BOTH.,#253);
#237=SURFACE_STYLE_USAGE(.BOTH.,#254);
#238=SURFACE_STYLE_USAGE(.BOTH.,#255);
#239=SURFACE_STYLE_USAGE(.BOTH.,#256);
#240=SURFACE_STYLE_USAGE(.BOTH.,#257);
#241=SURFACE_STYLE_USAGE(.BOTH.,#258);
#242=SURFACE_STYLE_USAGE(.BOTH.,#259);
#243=SURFACE_SIDE_STYLE('',(#260));
#244=SURFACE_SIDE_STYLE('',(#261));
#245=SURFACE_SIDE_STYLE('',(#262));
#246=SURFACE_SIDE_STYLE('',(#263));
#247=SURFACE_SIDE_STYLE('',(#264));
#248=SURFACE_SIDE_STYLE('',(#265));
#249=SURFACE_SIDE_STYLE('',(#266));
#250=SURFACE_SIDE_STYLE('',(#267));
#251=SURFACE_SIDE_STYLE('',(#268));
#252=SURFACE_SIDE_STYLE('',(#269));
#253=SURFACE_SIDE_STYLE('',(#270));
#254=SURFACE_SIDE_STYLE('',(#271));
#255=SURFACE_SIDE_STYLE('',(#272));
#256=SURFACE_SIDE_STYLE('',(#273));
#257=SURFACE_SIDE_STYLE('',(#274));
#258=SURFACE_SIDE_STYLE('',(#275));
#259=SURFACE_SIDE_STYLE('',(#276));
#260=SURFACE_STYLE_FILL_AREA(#277);
#261=SURFACE_STYLE_FILL_AREA(#278);
#262=SURFACE_STYLE_FILL_AREA(#279);
#263=SURFACE_STYLE_FILL_AREA(#280);
#264=SURFACE_STYLE_FILL_AREA(#281);
#265=SURFACE_STYLE_FILL_AREA(#282);
#266=SURFACE_STYLE_FILL_AREA(#283);
#267=SURFACE_STYLE_FILL_AREA(#284);
#268=SURFACE_STYLE_FILL_AREA(#285);
#269=SURFACE_STYLE_FILL_AREA(#286);
#270=SURFACE_STYLE_FILL_AREA(#287);
#271=SURFACE_STYLE_FILL_AREA(#288);
#272=SURFACE_STYLE_FILL_AREA(#289);
#273=SURFACE_STYLE_FILL_AREA(#290);
#274=SURFACE_STYLE_FILL_AREA(#291);
#275=SURFACE_STYLE_FILL_AREA(#292);
#276=SURFACE_STYLE_FILL_AREA(#293);
#277=FILL_AREA_STYLE('',(#294));
#278=FILL_AREA_STYLE('',(#295));
#279=FILL_AREA_STYLE('',(#296));
#280=FILL_AREA_STYLE('',(#297));
#281=FILL_AREA_STYLE('',(#298));
#282=FILL_AREA_STYLE('',(#299));
#283=FILL_AREA_STYLE('',(#300));
#284=FILL_AREA_STYLE('',(#301));
#285=FILL_AREA_STYLE('',(#302));
#286=FILL_AREA_STYLE('',(#303));
#287=FILL_AREA_STYLE('',(#304));
#288=FILL_AREA_STYLE('',(#305));
#289=FILL_AREA_STYLE('',(#306));
#290=FILL_AREA_STYLE('',(#307));
#291=FILL_AREA_STYLE('',(#308));
#292=FILL_AREA_STYLE('',(#309));
#293=FILL_AREA_STYLE('',(#310));
#294=FILL_AREA_STYLE_COLOUR('',#311);
#295=FILL_AREA_STYLE_COLOUR('',#311);
#296=FILL_AREA_STYLE_COLOUR('',#311);
#297=FILL_AREA_STYLE_COLOUR('',#311);
#298=FILL_AREA_STYLE_COLOUR('',#311);
#299=FILL_AREA_STYLE_COLOUR('',#311);
#300=FILL_AREA_STYLE_COLOUR('',#311);
#301=FILL_AREA_STYLE_COLOUR('',#311);
#302=FILL_AREA_STYLE_COLOUR('',#311);
#303=FILL_AREA_STYLE_COLOUR('',#311);
#304=FILL_AREA_STYLE_COLOUR('',#312);
#305=FILL_AREA_STYLE_COLOUR('',#312);
#306=FILL_AREA_STYLE_COLOUR('',#313);
#307=FILL_AREA_STYLE_COLOUR('',#312);
#308=FILL_AREA_STYLE_COLOUR('',#311);
#309=FILL_AREA_STYLE_COLOUR('',#311);
#310=FILL_AREA_STYLE_COLOUR('',#312);
#311=COLOUR_RGB('',0.200000002980232,0.200000002980232,0.200000002980232);
#312=COLOUR_RGB('',0.620000004768372,0.620000004768372,0.620000004768372);
#313=COLOUR_RGB('',0.752941191196442,0.752941191196442,0.752941191196442);
#314=ADVANCED_FACE('',(#157),#191,.T.);
#315=ADVANCED_FACE('',(#158,#159),#33,.F.);
#316=ADVANCED_FACE('',(#160,#161),#28,.F.);
#317=ADVANCED_FACE('',(#162,#163),#25,.T.);
#318=ADVANCED_FACE('',(#164,#165),#21,.T.);
#319=ADVANCED_FACE('',(#166,#167),#34,.T.);
#320=ADVANCED_FACE('',(#168,#169),#29,.F.);
#321=ADVANCED_FACE('',(#170,#171),#35,.F.);
#322=ADVANCED_FACE('',(#172,#173),#22,.T.);
#323=ADVANCED_FACE('',(#174,#175),#36,.T.);
#324=ADVANCED_FACE('',(#176,#177),#30,.F.);
#325=ADVANCED_FACE('',(#178,#179),#37,.F.);
#326=ADVANCED_FACE('',(#180,#181),#26,.T.);
#327=ADVANCED_FACE('',(#182,#183),#23,.T.);
#328=ADVANCED_FACE('',(#184),#31,.F.);
#329=ADVANCED_FACE('',(#185,#186),#32,.F.);
#330=ADVANCED_FACE('',(#187,#188),#24,.F.);
#331=ADVANCED_FACE('',(#189,#190),#27,.T.);
#332=CLOSED_SHELL('',(#314,#315,#316,#317,#318,#319,#320,#321,#322,#323,
#324,#325,#326,#327,#328));
#333=CLOSED_SHELL('',(#329,#330,#331));
#334=BREP_WITH_VOIDS('6127035',#332,(#20));
#335=SHAPE_DEFINITION_REPRESENTATION(#504,#336);
#336=SHAPE_REPRESENTATION('Parte1',(#337),#499);
#337=AXIS2_PLACEMENT_3D('',#445,#373,#374);
#338=AXIS2_PLACEMENT_3D('',#446,#375,#376);
#339=AXIS2_PLACEMENT_3D('',#447,#377,#378);
#340=AXIS2_PLACEMENT_3D('',#449,#379,#380);
#341=AXIS2_PLACEMENT_3D('',#450,#381,#382);
#342=AXIS2_PLACEMENT_3D('',#452,#383,#384);
#343=AXIS2_PLACEMENT_3D('',#453,#385,#386);
#344=AXIS2_PLACEMENT_3D('',#455,#387,#388);
#345=AXIS2_PLACEMENT_3D('',#456,#389,#390);
#346=AXIS2_PLACEMENT_3D('',#458,#391,#392);
#347=AXIS2_PLACEMENT_3D('',#459,#393,#394);
#348=AXIS2_PLACEMENT_3D('',#461,#395,#396);
#349=AXIS2_PLACEMENT_3D('',#462,#397,#398);
#350=AXIS2_PLACEMENT_3D('',#464,#399,#400);
#351=AXIS2_PLACEMENT_3D('',#465,#401,#402);
#352=AXIS2_PLACEMENT_3D('',#467,#403,#404);
#353=AXIS2_PLACEMENT_3D('',#468,#405,#406);
#354=AXIS2_PLACEMENT_3D('',#470,#407,#408);
#355=AXIS2_PLACEMENT_3D('',#471,#409,#410);
#356=AXIS2_PLACEMENT_3D('',#473,#411,#412);
#357=AXIS2_PLACEMENT_3D('',#474,#413,#414);
#358=AXIS2_PLACEMENT_3D('',#476,#415,#416);
#359=AXIS2_PLACEMENT_3D('',#477,#417,#418);
#360=AXIS2_PLACEMENT_3D('',#479,#419,#420);
#361=AXIS2_PLACEMENT_3D('',#480,#421,#422);
#362=AXIS2_PLACEMENT_3D('',#482,#423,#424);
#363=AXIS2_PLACEMENT_3D('',#483,#425,#426);
#364=AXIS2_PLACEMENT_3D('',#485,#427,#428);
#365=AXIS2_PLACEMENT_3D('',#487,#429,#430);
#366=AXIS2_PLACEMENT_3D('',#488,#431,#432);
#367=AXIS2_PLACEMENT_3D('',#489,#433,#434);
#368=AXIS2_PLACEMENT_3D('',#490,#435,#436);
#369=AXIS2_PLACEMENT_3D('',#492,#437,#438);
#370=AXIS2_PLACEMENT_3D('',#494,#439,#440);
#371=AXIS2_PLACEMENT_3D('',#495,#441,#442);
#372=AXIS2_PLACEMENT_3D('',#497,#443,#444);
#373=DIRECTION('',(0.,0.,1.));
#374=DIRECTION('',(1.,0.,0.));
#375=DIRECTION('',(0.,0.,1.));
#376=DIRECTION('',(6.12303176911189E-17,1.,0.));
#377=DIRECTION('',(0.,0.,-1.));
#378=DIRECTION('',(-1.,0.,0.));
#379=DIRECTION('',(0.,0.,-1.));
#380=DIRECTION('',(-1.,0.,0.));
#381=DIRECTION('',(0.,0.,-1.));
#382=DIRECTION('',(-1.,0.,0.));
#383=DIRECTION('',(0.,0.,-1.));
#384=DIRECTION('',(-1.,0.,0.));
#385=DIRECTION('',(0.,0.,1.));
#386=DIRECTION('',(1.,0.,0.));
#387=DIRECTION('',(0.,0.,-1.));
#388=DIRECTION('',(-1.,0.,0.));
#389=DIRECTION('',(0.,0.,1.));
#390=DIRECTION('',(1.,0.,0.));
#391=DIRECTION('',(0.,0.,1.));
#392=DIRECTION('',(1.,0.,0.));
#393=DIRECTION('',(0.,0.,1.));
#394=DIRECTION('',(1.,0.,0.));
#395=DIRECTION('',(0.,0.,1.));
#396=DIRECTION('',(1.,0.,0.));
#397=DIRECTION('',(0.,0.,1.));
#398=DIRECTION('',(1.,0.,0.));
#399=DIRECTION('',(0.,0.,1.));
#400=DIRECTION('',(1.,0.,0.));
#401=DIRECTION('',(0.,0.,1.));
#402=DIRECTION('',(1.,0.,0.));
#403=DIRECTION('',(0.,0.,1.));
#404=DIRECTION('',(1.,0.,0.));
#405=DIRECTION('',(0.,0.,1.));
#406=DIRECTION('',(1.,0.,0.));
#407=DIRECTION('',(0.,0.,1.));
#408=DIRECTION('',(1.,0.,0.));
#409=DIRECTION('',(0.,0.,1.));
#410=DIRECTION('',(1.,0.,0.));
#411=DIRECTION('',(0.,0.,1.));
#412=DIRECTION('',(1.,0.,0.));
#413=DIRECTION('',(0.,0.,1.));
#414=DIRECTION('',(1.,0.,0.));
#415=DIRECTION('',(0.,0.,1.));
#416=DIRECTION('',(1.,0.,0.));
#417=DIRECTION('',(0.,0.,1.));
#418=DIRECTION('',(1.,0.,0.));
#419=DIRECTION('',(0.,0.,1.));
#420=DIRECTION('',(1.,0.,0.));
#421=DIRECTION('',(0.,0.,1.));
#422=DIRECTION('',(1.,0.,0.));
#423=DIRECTION('',(0.,0.,1.));
#424=DIRECTION('',(1.,0.,0.));
#425=DIRECTION('',(0.,0.,1.));
#426=DIRECTION('',(1.,0.,0.));
#427=DIRECTION('',(0.,0.,1.));
#428=DIRECTION('',(1.,0.,0.));
#429=DIRECTION('',(0.,0.,1.));
#430=DIRECTION('',(1.,0.,0.));
#431=DIRECTION('',(0.,0.,1.));
#432=DIRECTION('',(1.,0.,0.));
#433=DIRECTION('',(0.,0.,1.));
#434=DIRECTION('',(1.,0.,0.));
#435=DIRECTION('',(0.,0.,1.));
#436=DIRECTION('',(1.,0.,0.));
#437=DIRECTION('',(0.,0.,1.));
#438=DIRECTION('',(1.,0.,0.));
#439=DIRECTION('',(0.,0.,1.));
#440=DIRECTION('',(1.,0.,0.));
#441=DIRECTION('',(0.,0.,-1.));
#442=DIRECTION('',(-1.,0.,0.));
#443=DIRECTION('',(0.,0.,-1.));
#444=DIRECTION('',(-1.,0.,0.));
#445=CARTESIAN_POINT('',(0.,0.,0.));
#446=CARTESIAN_POINT('',(1.21692272014403E-18,0.0198745125949353,-0.562499999999968));
#447=CARTESIAN_POINT('',(1.21692272014403E-18,0.0198745125949353,13.5732600732601));
#448=CARTESIAN_POINT('',(-8.63114670256659,0.0198745125949353,13.5732600732601));
#449=CARTESIAN_POINT('',(1.21692272014403E-18,0.0198745125949353,14.));
#450=CARTESIAN_POINT('',(1.21692272014403E-18,0.0198745125949353,13.5));
#451=CARTESIAN_POINT('',(-8.89170962188936,0.0198745125949353,13.5));
#452=CARTESIAN_POINT('',(5.36982202517434E-16,8.76987451259494,13.5));
#453=CARTESIAN_POINT('',(1.21692272014348E-18,0.0198745125949262,13.5));
#454=CARTESIAN_POINT('',(10.4801254874051,0.0198745125949262,13.5));
#455=CARTESIAN_POINT('',(1.21692272014348E-18,0.0198745125949262,7.5));
#456=CARTESIAN_POINT('',(1.21692272014348E-18,0.0198745125949262,7.5));
#457=CARTESIAN_POINT('',(10.9801254874051,0.0198745125949262,7.5));
#458=CARTESIAN_POINT('',(1.21692272014348E-18,0.0198745125949262,19.));
#459=CARTESIAN_POINT('',(1.21692272014348E-18,0.0198745125949262,7.));
#460=CARTESIAN_POINT('',(10.9801254874051,0.0198745125949262,7.));
#461=CARTESIAN_POINT('',(1.21692272014348E-18,0.0198745125949262,7.));
#462=CARTESIAN_POINT('',(1.21692272014348E-18,0.0198745125949262,6.));
#463=CARTESIAN_POINT('',(9.98012548740507,0.0198745125949262,6.));
#464=CARTESIAN_POINT('',(4.60444305403535E-16,7.51987451259493,6.));
#465=CARTESIAN_POINT('',(1.21692272014348E-18,0.0198745125949262,6.));
#466=CARTESIAN_POINT('',(8.,0.0198745125949262,6.));
#467=CARTESIAN_POINT('',(1.21692272014348E-18,0.0198745125949262,5.5));
#468=CARTESIAN_POINT('',(1.21692272014348E-18,0.0198745125949262,5.5));
#469=CARTESIAN_POINT('',(7.5,0.0198745125949262,5.5));
#470=CARTESIAN_POINT('',(1.21692272014348E-18,0.0198745125949262,19.));
#471=CARTESIAN_POINT('',(1.21692272014348E-18,0.0198745125949262,0.500000000000004));
#472=CARTESIAN_POINT('',(7.5,0.0198745125949262,0.500000000000004));
#473=CARTESIAN_POINT('',(1.21692272014348E-18,0.0198745125949262,0.500000000000004));
#474=CARTESIAN_POINT('',(1.21692272014348E-18,0.0198745125949262,5.31259064517897E-15));
#475=CARTESIAN_POINT('',(7.,0.0198745125949262,5.31259064517897E-15));
#476=CARTESIAN_POINT('',(1.21692272014355E-18,0.0198745125949275,5.34738539032268E-15));
#477=CARTESIAN_POINT('',(5.03915403173683E-32,8.22983486245693E-16,1.92445885616177E-15));
#478=CARTESIAN_POINT('',(3.2,8.22983486245693E-16,1.92445885616177E-15));
#479=CARTESIAN_POINT('',(5.03915403173683E-32,8.22983486245693E-16,-0.199999999999999));
#480=CARTESIAN_POINT('',(5.03915403173683E-32,8.22983486245693E-16,-0.199999999999999));
#481=CARTESIAN_POINT('',(3.,8.22983486245693E-16,-0.199999999999999));
#482=CARTESIAN_POINT('',(5.03915403173683E-32,8.22983486245693E-16,-28.5));
#483=CARTESIAN_POINT('',(5.03915403173683E-32,8.22983486245693E-16,-30.));
#484=CARTESIAN_POINT('',(1.5,8.22983486245693E-16,-30.));
#485=CARTESIAN_POINT('',(5.03915403173683E-32,8.22983486245693E-16,-28.5));
#486=CARTESIAN_POINT('',(3.,8.22983486245693E-16,-28.5));
#487=CARTESIAN_POINT('',(5.03915403173683E-32,8.22983486245693E-16,12.));
#488=CARTESIAN_POINT('',(1.83690953073357E-16,3.,-30.));
#489=CARTESIAN_POINT('',(0.,0.,12.));
#490=CARTESIAN_POINT('',(5.03915403173683E-32,8.22983486245693E-16,12.));
#491=CARTESIAN_POINT('',(1.70000000000001,8.22983486245693E-16,12.));
#492=CARTESIAN_POINT('',(0.,0.,12.));
#493=CARTESIAN_POINT('',(3.,0.,12.));
#494=CARTESIAN_POINT('',(0.,0.,54.));
#495=CARTESIAN_POINT('',(5.03915403173683E-32,8.22983486245693E-16,10.7));
#496=CARTESIAN_POINT('',(-3.,8.22983486245693E-16,10.7));
#497=CARTESIAN_POINT('',(5.03915403173683E-32,8.22983486245693E-16,12.));
#498=MECHANICAL_DESIGN_GEOMETRIC_PRESENTATION_REPRESENTATION('',(#192,#193,
#194,#195,#196,#197,#198,#199,#200,#201,#202,#203,#204,#205,#206,#207,#208),
#499);
#499=(
GEOMETRIC_REPRESENTATION_CONTEXT(3)
GLOBAL_UNCERTAINTY_ASSIGNED_CONTEXT((#500))
GLOBAL_UNIT_ASSIGNED_CONTEXT((#503,#502,#501))
REPRESENTATION_CONTEXT('Parte1','TOP_LEVEL_ASSEMBLY_PART')
);
#500=UNCERTAINTY_MEASURE_WITH_UNIT(LENGTH_MEASURE(0.005),#503,
'DISTANCE_ACCURACY_VALUE','Maximum Tolerance applied to model');
#501=(
NAMED_UNIT(*)
SI_UNIT($,.STERADIAN.)
SOLID_ANGLE_UNIT()
);
#502=(
NAMED_UNIT(*)
PLANE_ANGLE_UNIT()
SI_UNIT($,.RADIAN.)
);
#503=(
LENGTH_UNIT()
NAMED_UNIT(*)
SI_UNIT(.MILLI.,.METRE.)
);
#504=PRODUCT_DEFINITION_SHAPE('','',#505);
#505=PRODUCT_DEFINITION('','',#507,#506);
#506=DESIGN_CONTEXT('',#513,'design');
#507=PRODUCT_DEFINITION_FORMATION_WITH_SPECIFIED_SOURCE('','',#509,
 .NOT_KNOWN.);
#508=PRODUCT_RELATED_PRODUCT_CATEGORY('','',(#509));
#509=PRODUCT('Parte1','Parte1','Parte1',(#511));
#510=PRODUCT_CATEGORY('','');
#511=MECHANICAL_CONTEXT('',#513,'mechanical');
#512=APPLICATION_PROTOCOL_DEFINITION('international standard',
'config_control_design',2010,#513);
#513=APPLICATION_CONTEXT(
'configuration controlled 3D designs of mechanical parts and assemblie
s');
ENDSEC;
END-ISO-10303-21;
